PrimaNota.ru - самый крупный в мире бесплатный архив песенных текстов, аккордов, табулатур и нот


My Unsupported Data - Consequence - таба, видео

Регистрация Запомнить меня
Войти через:  Facebook Google Twitter Vk Yandex Mail.ru

My Unsupported Data - Consequence - таба, видео

Печатать
Просмотров: 75
Intro:

Guitar 1:
C#M - A - E - A

Guitar 2:
E------------------------------|
B--12-9-7-5h7p5-12-9-7~h9------| 2x
G------------------------------| 
D------------------------------|    
A------------------------------|
E------------------------------|


Verse:

Guitar 1 & 2:
   C#M                  A
E-------|------------|-------|------------|
B-------|------------|-------|------------|
G-------|------------|-------|------------|     2x
D--6-6--|--6-6-6-6---|--7-7--|------------|
A--4-4--|---4-4-4-4--|--7-7--|--7-7-7-7---|
E-------|------------|--5-5--|---5-5-5-5--|

    E                         A
E---------|----------------|-------|------------|
B---------|----------------|-------|------------|
G---------|----------------|-------|------------| 
D--11-11--|--11-11-11-11---|--7-7--|------------|    
A--9--9---|----9--9--9--9--|--7-7--|--7-7-7-7---|
E---------|----------------|--5-5--|---5-5-5-5--|



Chorus:

Guitar 2:
E----------------------------------|------------------------------|
B--12-12-12-9-9-9-7-7-7-5-5-7-7-7--|--12-12-12-9-9-9-7-7-7-9-9-9--|
G----------------------------------|------------------------------| 
D----------------------------------|------------------------------|    
A----------------------------------|------------------------------|
E----------------------------------|------------------------------|

E----------------------------------|---------------------------|
B--12-12-12-9-9-9-7-7-7-5-5-7-7-7--|--12-12-12-9-9-9-7-7-7-9~--|
G----------------------------------|---------------------------| 
D----------------------------------|---------------------------|    
A----------------------------------|---------------------------|
E----------------------------------|---------------------------|

E---------------------|---------------|
B--12~-9~-7~-5~h7p5~--|--12~-9~-7~h9--|
G---------------------|---------------| 2x
D---------------------|---------------|    
A---------------------|---------------|
E---------------------|---------------|

Bridge:
E----------------------------|
B--12-9-12-9-12-9/7-9/5h7p5--|
G----------------------------| 2x 
D----------------------------|    
A----------------------------|
E----------------------------|


After Bridge:

Guitar 1
C#M/D - E 4x

Guitar 2
E---------------------------------------|---------------------------------|
B---------------------------------------|---------------------------------|
G--12-12-12/11-11-11/9-9-9/7-7/9-9-9-9--|--12-12-12/11-11-11/9-9-9-9-9-9--|  2x
D--X--X--X-/X--X--X-/X-X-X/X-X/X-X-X-X--|--X--X--X-/X--X--X-/X-X-X-X-X-X--|    
A--10-10-10/9--9--9-/7-7-7/5-5/7-7-7-7--|--10-10-10/9--9--9-/7-7-7-7-7-7--|
E---------------------------------------|---------------------------------|


Verse I:

C#M                  A
We used to be like Romeo and Juliet
C#M            A
We made this childish promise
E                      A 
A promise that could never be fulfilled
C#M                    A
Every time I see you ,you just look away
C#M                              A
With each day passes through (you're getting further away)


Refrain:

C#M                        A
Did I do something wrong (all the mistakes that I did?)
E                            A
Should I just break down and fall? (Break down and fall)
C#M                              A
Why did you leave me here and keep me hangin' on (hangin' on)
E                      A
Is it fair to leave me alone?


Chorus:

C#M
Could somebody take me back
A
Maybe a few years back
E
On the day that I'm still with you
A
And change the mistakes that I did
C#M
So we won't suffer this consequence
A
Could somebody take me back (please take me back)
E
Would you listen to me
A
Please explain what happened to you?
C#M
Ever since that day, 
A
Your feelings started to change


Bridge:

E
how can I move on
A                               
if every time you're running through my head
E                               A
how can I break this nightmare the pressure's crushing me 


Verse II:

E
Would you listen to me
A
Please explain what happened to you?
E
Ever since that day, 
A
Your feelings started to change


Repeat refrain and chorus
Добавлено: 20.07.2013
Другие материалы по этой песне:
  • Аккорды и текст

Страница создана 19.06.2013
http://primanota.ru/my-unsupported-data/consequence-chords.htm
Привет, Гость.
Предлагаем пройти революционный курс по гитаре.
Подарок от PrimaNota.Ru, забирай!