PrimaNota.ru - самый крупный в мире бесплатный архив песенных текстов, аккордов, табулатур и нот


My Thoughts In Color - Everyday - таба, видео

Регистрация Запомнить меня
Войти через:  Facebook Google Twitter Vk Yandex Mail.ru

My Thoughts In Color - Everyday - таба, видео

Печатать
Просмотров: 78
-------------------------------------------------------------------------------
                             EVERYDAY - My Thoughts In Color
-------------------------------------------------------------------------------
Tabbed by: MTIC's guitarist
E-mail: mythoughtsincolor99@gmail.com

Tuning: Standard


Intro
(guitar 1)
|----------------------------------------------------------------------------------|
|----------------------------------------------------------------------------------|
|--7777-------------------7777-----------------------------------------------------|
|--7777-7777-5555-99-7777-7777-7777-(pm)5555-7777----------------------------------|x2
|--5555-7777-5555-99-7777-5555-7777-(pm)5555-7777----------------------------------|
|-------5555-3333-77-5555------5555-(pm)3333-5555----------------------------------|

(guitar 2)
|----------------------------------------------------------------------------------|
|----------------------------------------------------------------------------------|
|--77-76-99-98-1111-119-77-76-67--77-76-1010-109-1212-1210-99-77-67----------------|
|----------------------------------------------------------------------------------|
|--55-54-77-75--9-9--97-55-54-45--55-54-9-9--97--1010-109--77-55-45----------------|
|----------------------------------------------------------------------------------|


Verse 1
|--------------------------------------------------------------------------------|
|--------------------------------------------------------------------------------|
|--7-----------------------------------------------------------------------------|
|--7----7----9----5--------------------------------------------------------------|
|--5----7----9----5--------------------------------------------------------------|
|-------5----7----3--------------------------------------------------------------|

|-------------------------------------------------------------------------------------|
|-------------------------------------------------------------------------------------|
|--7-7-7-7-7-7-7-7--------------------------------------------------------------------|
|--7-7-7-7-7-7-7-7--7-7-7-7-7-7-7-7--9-9-9-9-9-9-9-9--5-5-5-5-5-5-5-5-5555-7777-------|
|--5-5-5-5-5-5-5-5--7-7-7-7-7-7-7-7--9-9-9-9-9-9-9-9--5-5-5-5-5-5-5-5-5555-7777-------|
|-------------------5-5-5-5-5-5-5-5--7-7-7-7-7-7-7-7--3-3-3-3-3-3-3-3-3333-5555-------|


Build Up 1
|-------------------------------------------------------------------------------------|
|-------------------------------------------------------------------------------------|
|-------------------------------------------------------------------------------------|
|--55555555-77777777------------------------------------------------------------------|
|--55555555-77777777------------------------------------------------------------------|
|--33333333-55555555------------------------------------------------------------------|


Chorus 1
|-----------------------------------------------------------------------------------|
|-----------------------------------------------------------------------------------|
|-----------------------------------------------------------------------------------|
|--55-555555555555-999999999-1010101010101010---------------------------------------|x4
|--55-555555555555-999999999-1010101010101010---------------------------------------|
|--33-333333333333-777777777-8--8-8-8-8-8-8-8---------------------------------------|


Bridge 1
|-----------------------------------------------------------------------------------|
|-----------------------------------------------------------------------------------|
|-----------------------------------------------------------------------------------|
|--777777777-1010101010101010-5-----------------------------------------------------|
|--777777777-1010101010101010-5-----------------------------------------------------|
|--555555555-8--8-8-8-8-8-8-8-3-----------------------------------------------------|


Verse 2
|-----------------------------------------------------------------------------------|
|-----------------------------------------------------------------------------------|
|--(pm)77777777---------------------------------------------------------------------|
|--(pm)77777777-77777777-99999999-5-------------------------------------------------|
|--(pm)55555555-77777777-99999999-5-------------------------------------------------|
|-----------(pm)55555555-77777777-3-------------------------------------------------|

|-----------------------------------------------------------------------------------|
|-----------------------------------------------------------------------------------|
|--7-7-7-7-7-7-7-7------------------------------------------------------------------|
|--7-7-7-7-7-7-7-7--7-7-7-7-7-7-7-7--9-9-9-9-9-9-9-9--5-5-5-5-5-5-5-5---------------|
|--5-5-5-5-5-5-5-5--7-7-7-7-7-7-7-7--9-9-9-9-9-9-9-9--5-5-5-5-5-5-5-5---------------|
|-------------------5-5-5-5-5-5-5-5--7-7-7-7-7-7-7-7--3-3-3-3-3-3-3-3---------------|


Build Up 2
|-----------------------------------------------------------------------------------|
|-----------------------------------------------------------------------------------|
|-----------------------------------------------------------------------------------|
|--55555555-77777777-99999999-1010101010101010--------------------------------------|
|--55555555-77777777-99999999-1010101010101010--------------------------------------|
|--33333333-55555555-77777777-8-8--8-8-8-8-8-8--------------------------------------|


Chorus 2
|----------------------------------------------------------------------------------|
|----------------------------------------------------------------------------------|
|----------------------------------------------------------------------------------|
|--55-555555555555-999999999-1010101010101010--------------------------------------|x4
|--55-555555555555-999999999-1010101010101010--------------------------------------|
|--33-333333333333-777777777-8--8-8-8-8-8-8-8--------------------------------------|


Bridge 2
|----------------------------------------------------------------------------------|
|----------------------------------------------------------------------------------|
|----------------------------------------------------------------------------------|
|--777777777-1010101010101010-5----------------------------------------------------|x4
|--777777777-1010101010101010-5----------------------------------------------------|
|--555555555-8--8-8-8-8-8-8-8-3----------------------------------------------------|


Build Up 3
|----------------------------------------------------------------------------------|
|----------------------------------------------------------------------------------|
|----------------------------------------------------------------------------------|
|--55555555-77777777-99999999-1010101010101010-------------------------------------|
|--55555555-77777777-99999999-1010101010101010-------------------------------------|
|--33333333-55555555-77777777-8--8-8-8-8-8-8-8-------------------------------------|

Chorus 3
|----------------------------------------------------------------------------------|
|----------------------------------------------------------------------------------|
|----------------------------------------------------------------------------------|
|--55----------999999999-1010101010101010------------------------------------------|
|--55----------999999999-1010101010101010------------------------------------------|
|--33----------777777777-8--8-8-8-8-8-8-8------------------------------------------|

|---------------------------------------------------------------------------------|
|---------------------------------------------------------------------------------|
|---------------------------------------------------------------------------------|
|--55-555555555555-999999999-1010101010101010-------------------------------------|x3
|--55-555555555555-999999999-1010101010101010-------------------------------------|
|--33-333333333333-777777777-8--8-8-8-8-8-8-8-------------------------------------|

|---------------------------------------------------------------------------------|
|---------------------------------------------------------------------------------|
|--1212121212121212---------------------------------------------------------------|
|--1212121212121212---------------------------------------------------------------|
|--1010101010101010---------------------------------------------------------------|
|---------------------------------------------------------------------------------|
Добавлено: 04.12.2013
Вам также может быть интересно:
Другие материалы по этой песне:
  • Аккорды и текст

Страница создана 04.12.2013
http://primanota.ru/my-thoughts-in-color/everyday-chords.htm
Привет, Гость.
Предлагаем пройти революционный курс по гитаре.
Подарок от PrimaNota.Ru, забирай!