PrimaNota.ru - самый крупный в мире бесплатный архив песенных текстов, аккордов, табулатур и нот


My Sleeping Karma - Ephedra - таба, видео

Регистрация Запомнить меня
Войти через:  Facebook Google Twitter Vk Yandex Mail.ru

My Sleeping Karma - Ephedra - таба, видео

Печатать
Просмотров: 96
-------------------------------------------------------------------------------
                             Ephedra - My Sleeping Karma
-------------------------------------------------------------------------------
Tabbed by: Lucky_Emperor

Tuning: Drop D

Hey, these are the first tabs I made, please be kind.


Main Riff(Verses):

e|---------------------------------------------------------------------------|
B|-----15---15---15----------------------------------------------------------|
G|------------------14---14-17---17---17-14---14-15---15---15-14---14--------|
D|--------0----0-------0-------0----0-------0-------0----0-------0-----------|
A|---------------------------------------------------------------------------|
D|---------------------------------------------------------------------------|

e|---------------------------------------------------------------------------|
B|---------------------------------------------------------------------------|
G|-----14---------14---------------------------------------------------------|
D|----------0-0------0-0-----------------------------------------------------|
A|---------------------------------------------------------------------------|
D|---------------------------------------------------------------------------|

e|---------------------------------------------------------------------------|
B|-----15---15---15----------------------------------------------------------|
G|------------------14---14-17---17---17-14---14-15---15---15-14---14--------|
D|--------0----0-------0-------0----0-------0-------0----0-------0-----------|
A|---------------------------------------------------------------------------|
D|---------------------------------------------------------------------------|

e|---------------------------------------------------------------------------|
B|---------------------------------------------------------------------------|
G|----------14--------14-----------------------------------------------------|
D|-----17--------15----------------------------------------------------------|
A|---------------------------------------------------------------------------|
D|---------------------------------------------------------------------------|


Second Riff(Chorus):

e|---------------------------------------------------------------------------|
B|---------------------------------------------------------------------------|
G|---7---7/9-999/10-9-7--121212/14-14-10-9-7-5/7-7---------------------------|
D|---x---x-x-xxx----x-x---x-x-x--x--x--x-x-x-x-x-----------------------------|
A|---5---5/7-777/8--7-5--101010/12-12--8-7-5-3/5-5---------------------------|
D|---------------------------------------------------------------------------|

Between Chorus and Bridge:


e|---------------------------------------------------------------------------|
B|---------------------------------------------------------------------------|
G|------7-7-7-7-7-7-7-7-9-9-9-9-9-9-9-9-10-10-10-10-12-12-12-12--------------|
D|------x-x-x-x-x-x-x-x-x-x-x-x-x-x-x-x--x--x--x--x--x--x--x--x--------------|
A|------5-5-5-5-5-5-5-5-7-7-7-7-7-7-7-7--8--8--8--8-10-10-10-10--------------|
D|---------------------------------------------------------------------------|


e|---------------------------------------------------------------------------|
B|---------------------------------------------------------------------------|
G|------14-14-14-14-15-17-19-------------------------------------------------|
D|-------x--x--x--x--x--x--x-------------------------------------------------|
A|------12-12-12-12-13-15-17-------------------------------------------------|
D|---------------------------------------------------------------------------|

Repeat this until the next part starts:
e|---------------------------------------------------------------------------|
B|---------------------------------------------------------------------------|
G|-----7-7-7-7-7-7-7-7-------------------------------------------------------|
D|-----x-x-x-x-x-x-x-x-------------------------------------------------------|
A|-----5-5-5-5-5-5-5-5-------------------------------------------------------|
D|---------------------------------------------------------------------------|



Bridge(I'm not rly sure if this is right):

e|---------------------------------------------------------------------------|
B|---------------------------------------------------------------------------|
G|---------------------------------------------------------------------------|
D|---------------------------------------------------------------------------|
A|-------10---12---13---12---10---10h12-12-----------------------------------|
D|-----0----0----0----0----0----0----0-----0-0-------------------------------|

e|---------------------------------------------------------------------------|
B|---------------------------------------------------------------------------|
G|---------------------------------------------------------------------------|
D|---------------------------12----------------------------------------------|
A|-------10---12---13---12--------13---12------------------------------------|
D|-----0----0----0----0----0----0----0-----0-0-------------------------------|





************************************

| /   slide up
| \   slide down
| h   hammer-on
| p   pull-off
| ~   vibrato
| +   harmonic
| x   Mute note
| b   Bend
| pb  Pre-bend
| br  Bend release
| pbr Pre-bend release
| brb Bend release bend

************************************
Добавлено: 22.04.2016
Другие материалы по этой песне:
  • Аккорды и текст

Страница создана 22.04.2016
http://primanota.ru/my-sleeping-karma/ephedra-chords.htm
Привет, Гость.
Предлагаем пройти революционный курс по гитаре.
Подарок от PrimaNota.Ru, забирай!