PrimaNota.ru - самый крупный в мире бесплатный архив песенных текстов, аккордов, табулатур и нот


My Sassy Girl - I Believe - таба, видео

Регистрация Запомнить меня
Войти через:  Facebook Google Twitter Vk Yandex Mail.ru

My Sassy Girl - I Believe - таба, видео

Печатать
Просмотров: 62
I Believe (duet)
------------------------------¤
from My Sassy Girl
tabbed by deedewu

This is the tab for the original Korean version of the song, which is
played in duet.  In some cases hammer ons are indicated simply by the
juxtaposition of two numbers (such as 02 instead of 0h2).  Tilde (~) 
means to strum the chord, and slides (/ or \) are as indicated.  

This is the best rendition I can offer thus far by playing the song with
the right and left channels separately; the guitar gets sorta lost in
the middle of the song (aka I got tired tabbing) so I figure this is
enough to start most people off.


Intro:
E|0-----0-----3---|----3---2-------|----------------|----------------|
B|----3---3-------|1-----------3---|0-----0-1---3---|0-----0-1---3---|
G|--0-------0-----|--0---0---2-----|----0-----0-----|----0---0---2---|
D|----------------|--------0-------|--0-----02------|--0-----2---0---|
A|3-------2-------|0---------------|----------------|----------------|
E|----------------|----------------|3---------------|3---------------|
 |                |                |                |        ~       |
E|----------------|----------------|----------------|--------0-------|
B|--------------0-|------1---------|0-----0-1--/3---|0-----0-1-------|
G|--0-0-------0---|----2-----2-----|----0---0-------|----0---0-------|
D|--2-------0-----|--2-----0-------|--0-----2--/4---|--0-------------|
A|3-------2-------|0---------------|----------------|----------------|
E|----------------|----------------|3---------------|3---------------|


Verse 1:
E|--------2-------|--3-3-----------|------------0---|------------2---|
B|----0-3-----3---|1-------0---4---|------0---------|----4---------3-|
G|----------2-----|------0-0-0---4-|----0-----2-----|--2-------2-----|
D|0-0-------------|----------------|--2---2---------|--------0-------|
A|----------------|----------------|--------0-------|3---------------|
E|3-------3-------|3-------3-------|0---------------|----------------|
 |                |                |                |                |
E|----------------|----------------|------------0---|5---5---2-------|
B|------0-3-------|1-------0-0-0---|0-----0-2-------|--4---------3---|
G|----0-------2---|0---0---0-----2-|----0-----2-----|----------2-----|
D|--0-------------|--2---------1---|--2-------------|----------------|
A|----------------|3-------2-------|----------------|----------------|
E|3-------3-------|----------------|----------------|----------------|


Verse 2:
E|----3---2-------|----3-----------|----------------|------------2---|
B|0-----3-----3---|1-------0---4---|------0-----2---|----4-----------|
G|----------2---2-|--0---0-0-0---4-|----0---------0-|--2-------2---2-|
D|--0-------------|----------------|--2-------2-----|--------0-------|
A|----------------|----------------|--------0-------|3---------------|
E|3-------3-------|3-------3-------|0---------------|----------------|
 |                |                |                |                |
E|--------2-------|----------------|0-----------0---|5-------2-------|
B|0-----0-----3---|1-------0-0---0-|------0-2-------|----4---3---3---|
G|----0-----2-----|----0---0---2---|----0---2-------|--5-------2-----|
D|--0-------------|--2---------1---|--2-------------|----------------|
A|----------------|--------2-------|----------------|----------------|
E|3-------3-------|3---------------|----------------|----------------|


Bridge:
E|----0-------3---|----------------|----------------|--------------0-|2-------|
B|------1-3-------|--------------0-|----0-------2---|----1-------3---|----3---|
G|--0-------0-----|--0---2-----2---|------0---0---0-|--0---0---2-----|--2-----|
D|----------------|2---2-----------|--2-------------|2-------0-------|--------|
A|3-------2-------|0---3---2-------|2-------0-------|----------------|--------|
E|----------------|----------------|----------------|----------------|--------|
 |~               |~   ~           |                |                |        |
E|3-----------3---|0---3-------3---|----------------|--------------0-|2-------|
B|3-------3-------|1---1---0-3-----|--0---3-3---2---|1-----------3---|--------|
G|0---------0-----|0---0-----------|----0---0-----0-|--0-0-----2-----|--------|
D|2---------------|2---2-----------|2---------2-2---|------2-0-------|--------|
A|3-------2-------|0---3-----------|----------------|----------------|--------|
E|----------------|----------------|----------------|----------------|--------|


Chorus:
E|------------3---|--3-------------|----5-----------|--------------0-|
B|0-----0-1-------|0---0-3-7-\-5---|----5-------5---|----5-------7---|
G|----0-----0-----|--------7-\-5---|--5-------5-----|--5-------------|
D|--0-------------|----------------|7-------6-------|5---------7-----|
A|--------0-------|------------0---|----------------|--------5-------|
E|3---------------|3-------0-------|----------------|----------------|
 |                |                |                |        ~       |
E|----3-----3-----|----------------|------0-------0-|------0-3---2h3-|
B|0-----0-1-------|--0---0-3-\-1---|----1-----------|----1---3-------|
G|------------0---|0---0---0---0---|--2-------------|--0-----2-2-----|
D|--0-------------|--------4-\-2---|------------2---|--------0-------|
A|--------0-------|2-------0-------|0---------3-----|----------------|
E|3---------------|------------0---|--------4-------|3---------------|


---------------------
copyrighted 2002 by deedewu
     
Добавлено: 25.09.2013
Другие материалы по этой песне:

Страница создана 05.03.2012
http://primanota.ru/my-sassy-girl/i-believe-chords.htm
Привет, Гость.
Предлагаем пройти революционный курс по гитаре.
Подарок от PrimaNota.Ru, забирай!