PrimaNota.ru - самый крупный в мире бесплатный архив песенных текстов, аккордов, табулатур и нот


My Ruin - Ready For Blood - таба, видео

Регистрация Запомнить меня
Войти через:  Facebook Google Twitter Vk Yandex Mail.ru

My Ruin - Ready For Blood - таба, видео

Печатать
Просмотров: 44
-------------------------------------------------------------------------------
                         READY FOR BLOOD - My Ruin
-------------------------------------------------------------------------------
Tabbed by:MilesAK
E-mail:MilesAK@hotmail.co.uk

Tuning:Drop B (BGbBEAbDb)

Intro:

So, there's a tonne of distortion and layers on this intro, so do forgive me if I'm not a hundred 
percent accurate.

These are the low, thick notes played over the riff. It might even be the bass, but it's far too prominent
for me to leave out of the tab...

Db|-------------------------------------------------------------------------|
Ab|-------------------------------------------------------------------------|
E|--------------------------------------------------------------------------|
B|--10-7-77-7-10-7-77-7-10-7-77-7-10-7--------------------------------------|
Gb|-10-7-77-7-10-7-77-7-10-7-77-7-10-7--------------------------------------|
B|--10-7-77-7-10-7-77-7-10-7-77-7-10-7-etc...-------------------------------|

This riff is played in time with the one above, the bend at the 5th fret is a whole tone... The same riff
is also seemingly played an octave higher on the 8th fret of the Ab string...

Db|-------------------------------------------------------------------------|
Ab|-------------------------------------------------------------------------|
E|--------------------------------------------------------------------------|
B|--5b5-55-5-5pb-55-5-5b-55-5-5pb-55-etc...---------------------------------|
Gb|-------------------------------------------------------------------------|
B|--------------------------------------------------------------------------|

Bassist/Rhythm guitarist after 8 bars of intro:

Db|-------------------------------------------------------------------------|
Ab|-------------------------------------------------------------------------|
E|--------------------------------------------------------------------------|
B|--7-7-7-7-7-7-7-7-7-7-7-7-7-7-7-7-7-7-7-7-7-7-7-7-7-7-7-------------------|
Gb|-7-7-7-7-7-7-7-7-7-7-7-7-7-7-7-7-7-7-7-7-7-7-7-7-7-7-7-------------------|
B|--7-7-7-7-7-7-7-7-7-7-7-7-7-7-7-7-7-7-7-7-7-7-7-7-7-7-7-------------------|

Again this is played over the top of the intro bends riff, after the above rhythm/bassist section...

Db|-------------------------------------------------------------------------|
Ab|-------------------------------------------------------------------------|
E|--------------------------------------------------------------------------|
B|--5/7-77-7-7\5-55-5-5/7-77-7-7\5-55-5-------------------------------------|
Gb|-5/7-77-7-7\5-55-5-5/7-77-7-7\5-55-5-------------------------------------|
B|--5/7-77-7-7\5-55-5-5/7-77-7-7\5-55-5-------------------------------------|

(Again, a bass part, but a prominent one, played along with all the other riffs at this point. 
I apologise if this tab is very complex. Like I said earlier, it's a very layered song.):

E|--------------------------------------------------------------------------|
B|--------7-7\--------7-7\--------7-7\--------------------------------------|
Gb|------------------------------------etc...-------------------------------|
B|-7-7--7------7-7--7------7-7--7-------------------------------------------|

Verse (At last):

Db|--------------------------------------------------------------------------------------|
Ab|--------------------------------------------------------------------------------------|
E|---------------------------------------------------------------------------------------|
B|-------------------11-11-----------------13-13-----------------15-15-------------------|
Gb|------------------11-11-----------------13-13-----------------15-15-------------------|(x2, but finish
B|-0-2/-10-6\-0-2/11-11-11-0-2/-10-6\-0-2/-13-13-0-2/-10-6\-0-2/-15-15-0-2/-10-6b~--5-3~-|on 15 15 0)

Chorus:

Db|-------------------------------------------------------------------------|
Ab|-------------------------------------------------------------------------|
E|--------------------------------------------------------------------------|
B|--2-0-2-5--------------------2-0-2-5--9-8---------------------------------|
Gb|-2-0-2-5---9-8-9/13-12--12\-2-0-2-5--9-8---------------------------------|
B|--2-0-2-5---9-8-9/13-12--12\-2-0-2-5--9-8---------------------------------|

Db|-------------------------------------------------------------------------|
Ab|-------------------------------------------------------------------------|
E|--------------------------------------------------------------------------|
B|--2-0-2-5--9-8-9/13-12--2-0-2-5--2-0--------------------------------------|
Gb|-2-0-2-5--9-8-9/13-12--2-0-2-5--2-0--------------------------------------|(x2)
B|--2-0-2-5--9-8-9/13-12--2-0-2-5--2-0--------------------------------------|

There's a wee breakdown/outro as well, that really just uses the same notes as the chorus but muddled
up a little. I will write that in tab very shortly. I'm just eager to get this tab out there with the
main riffs and whatnot.

************************************

| /   slide up
| \   slide down
| h   hammer-on
| p   pull-off
| ~   vibrato
| +   harmonic
| x   Mute note
| b   Bend
| pb  Pre-bend
| br  Bend release
| pbr Pre-bend release
| brb Bend release bend

************************************
Добавлено: 09.08.2015
Другие материалы по этой песне:
  • Аккорды и текст

Страница создана 09.08.2015
http://primanota.ru/my-ruin/ready-for-blood-chords.htm
Привет, Гость.
Предлагаем пройти революционный курс по гитаре.
Подарок от PrimaNota.Ru, забирай!