PrimaNota.ru - самый крупный в мире бесплатный архив песенных текстов, аккордов, табулатур и нот


My Reversed World - Homesick - аккорды и текст, видео

Регистрация Запомнить меня
Войти через:  Facebook Google Twitter Vk Yandex Mail.ru

My Reversed World - Homesick - аккорды и текст, видео

Печатать
Просмотров: 137
Уроки эстрадного вокала в Санкт-Петербурге
Homesick
My Reversed World
              Homesick             
E-----0--------------------0-------
B---0--0---------------------0-----
G-4------4--------4----4--------4--
D---------------2----2-------------
A----------------------------------
E------------4---------------------
           C                     D
E-------------0-------------------
B---------------0-----------------
G--- 4----4----------4----4-------
D-2----2----------2----2----------
A---------------------------------
E---------------------------------
                E   
Intro: C,D,E,B    2x times
(Verse 1) Mute A string on C 
C                       
We have never been so close 
D
To each other
E
The times we have
C
Go by so quick
D
I wish we could've 
E
Stayed like this forever
C
You're crying 
D
Why 
E
Why are you crying
B
Do I feel like home to you
A
I probably do

(Chorus) Mute A string on C 
C
Don't cry now baby
D
I love you so much it hurts 
E
I'll bring you flowers
C
Hug you and pick you off your feet
D
Look at me 
E
Don't feel so homesick 

(Verse 2)  Mute A string on C  
C
You're heart stopped beating
D
Don't worry I'm coming
E
Since I'm the air
B
That you breathe
C
I know this isn't fair
D
You're always busy
E
And I'm not
B
Let's sneak out of our window
A
Try not to get caught

(Bridge 2)
C-D-E-B (Strum- up & down)
E
You're father see's you
B
He's yelling at you
A
This is my fault 
C                   E
The way I've treated you
B               A                C
Made you crazy for me

(Chorus)  Mute A string on C 
C
Don't cry now baby
D
I love you so much it hurts 
E
I'll bring you flowers
        C
Hug you and pick you off your feet
D
Look at me 
E                              B
Don't feel so homesick 

E-----0------0-------0------0------
B----------------------------------
G-4------4------4-------4----------
D----------------------------------
A----------------------------------
E----------------------------------

Добавлено: 16.08.2015
Другие материалы по этой песне:
  • Аккорды и текст

Страница создана 16.08.2015
http://primanota.ru/my-reversed-world/homesick-chords.htm
Привет, Гость.
Предлагаем пройти революционный курс по гитаре.
Подарок от PrimaNota.Ru, забирай!