PrimaNota.ru - самый крупный в мире бесплатный архив песенных текстов, аккордов, табулатур и нот


My Reversed World - Angel - таба, видео

Регистрация Запомнить меня
Войти через:  Facebook Google Twitter Vk Yandex Mail.ru

My Reversed World - Angel - таба, видео

Печатать
Просмотров: 45
Уроки эстрадного вокала в Санкт-Петербурге
                         Angel
Chords/Half a step down
  E    A    B    C
E{0}--{0}--{0}--{0}
B{0}--{0}--{0}--{0}
G{4}--{4}--{4}--{4}
D{2}--{2}--{4}--{2}
A{2}--{0}--{2}--{4}
E{0}--{0}--{0}--{0}

Intro
(Same picking for Verse 1/Chorus/Verse2) *Depending on the chord*
E----0--------0-------0--------0---|
B--0--------0-------0--------0-----|
G----------------------------------|
D-2--------2--------2--------2-----|
A----------------------------------|
E----------------------------------|

E---0--------0--------0---------0---|
B--0--------0--------0---------0----|
G-----------------------------------|
D-----------------------------------|
A-3---------3--------3---------3----|
E-----------------------------------|

E---0----------0---------0-------0-|
B--0---------0----------0--------0-|
G----------------------------------|
D----------------------------------|
A-2---------2----------2---------2-|
E----------------------------------|

E---0-----0----0----0--------------|
B--0-----0----0----0---------------|
G----------------------------------|
D-4----4----4----4-----4-----------|
A----------------------------------|
E----------------------------------|

(Verse 1)
A
Your eyes
         C
Knock me down
E
They're bright
         B
Like the sky
A
Is it just me
        C
They're prettier
     E          B
Than I have ever seen

(Chorus)
E    B
Just know you're
   A      C
My angel (You're)
   E    B
My angel

(Verse 2)
A
I'll be there
         C
When you fall
E
I don't want
     B
your heart
     A   C  E  B
To break     (Mute begins)
      (Because you're a part of me)
(Bridge)
A
I don't
C        E
Like the fact
(I need to react)
             B
That they're hurting you
(That's not what I wanted them to  do)
A
I don't                 (I don't)
C         E
Like the fact             / Strum\
          B <----(Lightly-normal)
That they want to take the light   away

From me

(Outro)    (Guitar 2/Rythm)
           Starts at "stay"
E----------------------------------|
B--------5-----------------5-------|
G---4-----------4-----4---------4--|
D------2----2------------2----2----|
A-4----------------4---------------|
E----------------------------------|

E----------------------------------|
B--------5-----------------5-------|
G---4-----------4-----4---------4--|
D------2----2------------2----2----|
A-0----------------0---------------|
E----------------------------------|

E----------------------------------|
B--------5---------------5---------|
G---4----------4----4----------4---|
D------2----2----------2----2------|
A----------------------------------|
E-4--------------4-----------------|

E----------------------------------|
B--------5----------------5--------|
G---4----------4-----4----------4--|
D------4----4-----------4----4-----|
A-2----------------2---------------|
E----------------------------------|
           E    C
I need you stay(Is for you to stay)
   A    B
To stay       (Don't go)
E    C
Just know you're
   A       B
My angel      (You're)
E
Mine
C
Mine
A   B
Mine
E
Please be mine
C
Don't leave me behind
A
I want to be alive
B
So I can have you in my dreams
                     (Since)                   E
You're my angel
Добавлено: 31.08.2015
Другие материалы по этой песне:
  • Аккорды и текст

Страница создана 31.08.2015
http://primanota.ru/my-reversed-world/angel-chords.htm
Привет, Гость.
Предлагаем пройти революционный курс по гитаре.
Подарок от PrimaNota.Ru, забирай!