PrimaNota.ru - самый крупный в мире бесплатный архив песенных текстов, аккордов, табулатур и нот


My Morning Jacket - Tyrone - таба, видео

Регистрация Запомнить меня
Войти через:  Facebook Google Twitter Vk Yandex Mail.ru

My Morning Jacket - Tyrone - таба, видео

Печатать
Просмотров: 111
Авторы: Erykah Badu, Norman "Keys" Hurt

 Tyrone - My Morning Jacket
-------------------------------------------------------------------------------
Tabbed by: badfish_lewis

MMJ does it a little differently every time but this will give you the basics.

Tuning: Standard - Capo on 1st Fret

Intro: (Repeat Am and Dm)
e|0----1-------------------0----1--------------------------------------------|
B|1----3-------------------1----3-----0h1------------------------------------|
G|2----2-------------------2----2--0h2---------------------------------------|
D|2----0-------------------2----0--------------------------------------------|
A|0------------------------0-------------------------------------------------|
E|---------------------------------------------------------------------------|

Verse/Chorus
e|0-x1--1-1-1-1-1---------0----1---1-----1------------------------------------|
B|1-x3--1-1-1-1-1---------1----3---1-----1------------------------------------|
G|2-x2--2-2-2-2-2---------2----2---2-0h2-1------------------------------------|
D|2-x0--3-3-3-3-3---------2----0---3-----3------------------------------------|
A|0-x---------------------0---------------------------------------------------|
E|----------------------------------------------------------------------------|

Lyrics:

I'm getting tired of your shit
You don't ever buy me nothing
See every time you come around You gotta bring Jim James, Paul and Tyrone


See, why can we be by ourselves sometimes? I've been having this on my mind for a long time
I just want it to be you and me like it used to be, baby
But you don't know how to act So matter fact,

I think you better call Tyrone
And tell him come on help you get your shit
Yeah you better call Tyrone
But you can't use my phone

Every time we go somewhere I gotta reach down in my purse
To pay your way and your homeboys way and sometimes your cousins way
They don't ever have to pay
Don't have no cars
Hang around in bars
Try to hang around with stars
like Badu I'm gonna tell you the truth
You better show 'em proof

Call Tyrone And tell him come on help you get your shit
Oh call Tyrone
But you can't use my phone...

************************************

| /   slide up
| \   slide down
| h   hammer-on
| p   pull-off
| ~   vibrato
| +   harmonic
| x   Mute note
| b   Bend
| pb  Pre-bend
| br  Bend release
| pbr Pre-bend release
| brb Bend release bend

************************************
Добавлено: 13.09.2013
Другие материалы по этой песне:
  • Аккорды и текст

Страница создана 13.09.2013
http://primanota.ru/my-morning-jacket/tyrone-chords.htm
Привет, Гость.
Предлагаем пройти революционный курс по гитаре.
Подарок от PrimaNota.Ru, забирай!