PrimaNota.ru - самый крупный в мире бесплатный архив песенных текстов, аккордов, табулатур и нот


My Morning Jacket - Tropics - таба, видео

Регистрация Запомнить меня
Войти через:  Facebook Google Twitter Vk Yandex Mail.ru

My Morning Jacket - Tropics - таба, видео

Печатать
Просмотров: 99
-------------------------------------------------------------------------------
                             SONG NAME - Band Name
-------------------------------------------------------------------------------
Tabbed by: austyyy
E-mail: lesapt59@gmail.com

if you watch them live you'll see Carl play this without a capo as such; 
here's the main part of the intro along with its ending before Jim sings

Tuning:

E|--4p2p0---------7------4p2p0-------6-------4p2p0------4-------2-2-2--4-2-0-|
B|--------2--------------------2-------------------2-------------------------|
G|-----------4-------6------------3-----6-------------2----6----3-3-3--4-3-1-|
D|---------------------------------------------------------------------------|
A|---------------------------------------------------------------------------|
E|---------------------------------------------------------------------------|

e|--2-2-2--0-2-2-2-0--2-4-4--7-----------------------------------------------|
B|---------------------------------------------------------------------------|
G|--3-3-3--1-3-3-3-1--3-4-4--8-----------------------------------------------|
D|---------------------------------------------------------------------------|
A|---------------------------------------------------------------------------|
E|---------------------------------------------------------------------------|



************************************

| /   slide up
| \   slide down
| h   hammer-on
| p   pull-off
| ~   vibrato
| +   harmonic
| x   Mute note
| b   Bend
| pb  Pre-bend
| br  Bend release
| pbr Pre-bend release
| brb Bend release bend

************************************
Добавлено: 05.09.2015
Другие материалы по этой песне:
  • Аккорды и текст

Страница создана 05.09.2015
http://primanota.ru/my-morning-jacket/tropics-chords.htm
Привет, Гость.
Предлагаем пройти революционный курс по гитаре.
Подарок от PrimaNota.Ru, забирай!