PrimaNota.ru - самый крупный в мире бесплатный архив песенных текстов, аккордов, табулатур и нот


My Morning Jacket - Spring Among The Living - таба, видео

Регистрация Запомнить меня
Войти через:  Facebook Google Twitter Vk Yandex Mail.ru

My Morning Jacket - Spring Among The Living - таба, видео

Печатать
Просмотров: 44
Уроки эстрадного вокала в Санкт-Петербурге
Spring (Among the Living) - My Morning Jacket
=============================================


Guitar 1 (Jim) - Standard, capo on 8
Guitar 2 (Carl) - Standard, no capo


=====
Intro
=====

Guitar 1 (Jim), capo 8
E|------------------------------------|------------------------------------|
B|---5----------5----3----------3-----|---2----------2----0----------0-----|
G|---------4---------------4----------|---------4---------------4----------|
D|---0--------0------0--------0-------|---0--------0------0--------0-------|
A|------------------------------------|------------------------------------|
E|------------------------------------|------------------------------------|

Guitar 2 (Carl), no capo
E|------------------------------------|------------------------------------|
B|------------------------------------|------------------------------------|
G|------------------------------------|------------------------------------|
D|--------10---------8------8----8----|--------10---------8------8----8----|
A|-----------------------10---10------|-----------------------10---10------|
E|----8-------------------------------|----8-------------------------------|

==============
Verse/Chorus 1
==============

0:42 "...ready for spring..."

Guitar 1 (Jim), capo 8
E|-------0--------0--------0--------0-|-------0--------0--------0--------0-|
B|-------2--------2--------2--------2-|-------2--------2--------2--------2-|
G|-------2--------2--------2--------2-|-------2--------2--------2--------2-|
D|-------2--------2--------2--------2-|-------2--------2--------2--------2-|
A|-------0--------0--------0--------0-|-------0--------0--------0--------0-|
E|------------------------------------|------------------------------------|

Guitar 2 (carl), no capo
E|------------------------------------|------------------------------------|
B|-------10-------10-------10-------10|-------10-------10-------10-------10|
G|-------10-------10-------10-------10|-------10-------10-------10-------10|
D|-------10-------10-------10-------10|-------10-------10-------10-------10|
A|-------8--------8--------8--------8-|-------8--------8--------8--------8-|
E|------------------------------------|------------------------------------|

0:50 "...changes everything..."

Guitar 1 (Jim), capo 8
E|-------0--------0--------0--------0-|-------0--------0--------0--------0-|
B|-------0--------0--------0--------0-|-------0--------0--------0--------0-|
G|-------0--------0--------0--------0-|-------0--------0--------0--------0-|
D|-------2--------2--------2--------2-|-------2--------2--------2--------2-|
A|-------2--------2--------2--------2-|-------2--------2--------2--------2-|
E|-------0--------0--------0--------0-|-------0--------0--------0--------0-|

Guitar 2 (Carl), no capo
E|------------------------------------|------------------------------------|
B|------------------------------------|------------------------------------|
G|------------------------------------|------------------------------------|
D|-------10-------10-------10-------10|-------10-------10-------10-------10|
A|-------10-------10-------10-------10|-------10-------10-------10-------10|
E|-------8--------8--------8--------8-|-------8--------8--------8--------8-|

Alternate these two chords as needed until instrumental section...

============
Instrumental
============

1:32
Guitar 2 (Carl), no capo
E|------------------------------------|------------------------------------|
B|------------------------------------|------------------------------------|
G|------------------------------------|------------------------------------|
D|--------10---------8------8----8----|--------10---------8------8----8----|
A|-----------------------10---10------|-----------------------10---10------|
E|----8-------------------------------|----8-------------------------------|

1:36
Guitar 1 (Jim), capo 8
E|---0-------0--------0-------0-------|---0-------0--------0-------0-------|
B|---0h2-----0h2------0h2-----3-------|---0h2-----0h2------0h2-----3-------|
G|------------------------------------|------------------------------------|
D|------------------------------------|------------------------------------|
A|------------------------------------|------------------------------------|
E|------------------------------------|------------------------------------|

2:00
Jim repeats "A" (actually an F) chord from verse, then...

========
Chorus 2
========

2:03 "Among the living..."
Guitar 1 (Jim), capo 8
E|-------0--------0--------0--------0-|-------0--------0--------0--------0-|
B|-------3--------3--------3--------3-|-------3--------3--------3--------3-|
G|-------2--------2--------2--------2-|-------2--------2--------2--------2-|
D|-------0--------0--------0--------0-|-------0--------0--------0--------0-|
A|-------0--------0--------0--------0-|-------0--------0--------0--------0-|
E|------------------------------------|------------------------------------|


E|-------0--------0--------0--------0-|-------0--------0--------0--------0-|
B|-------0--------0--------0--------0-|-------0--------0--------0--------0-|
G|-------0--------0--------0--------0-|-------0--------0--------0--------0-|
D|-------2--------2--------2--------2-|-------2--------2--------2--------2-|
A|-------2--------2--------2--------2-|-------2--------2--------2--------2-|
E|-------0--------0--------0--------0-|-------0--------0--------0--------0-|


E|-------0--------0--------0--------0-|-------0--------0--------0--------0-|
B|-------1--------1--------1--------1-|-------1--------1--------1--------1-|
G|-------0--------0--------0--------0-|-------0--------0--------0--------0-|
D|-------2--------2--------2--------2-|-------2--------2--------2--------2-|
A|-------3--------3--------3--------3-|-------3--------3--------3--------3-|
E|------------------------------------|------------------------------------|


E|-------0--------0--------0--------0-|-------0--------0--------0--------0-|
B|-------2--------2--------2--------2-|-------2--------2--------2--------2-|
G|-------2--------2--------2--------2-|-------2--------2--------2--------2-|
D|-------2--------2--------2--------2-|-------2--------2--------2--------2-|
A|-------0--------0--------0--------0-|-------0--------0--------0--------0-|
E|------------------------------------|------------------------------------|

2:03
Guitar 2 (Carl), no capo
E|------------------------------------|------------------------------------|
B|------------------------------------|------------------------------------|
G|------------------------------------|------------------------------------|
D|-------8--------8--------8--------8-|-------8--------8--------8--------8-|
A|-------8--------8--------8--------8-|-------8--------8--------8--------8-|
E|-------6--------6--------6--------6-|-------6--------6--------6--------6-|


E|------------------------------------|------------------------------------|
B|------------------------------------|------------------------------------|
G|------------------------------------|------------------------------------|
D|-------10-------10-------10-------10|-------10-------10-------10-------10|
A|-------10-------10-------10-------10|-------10-------10-------10-------10|
E|-------8--------8--------8--------8-|-------8--------8--------8--------8-|


E|------------------------------------|------------------------------------|
B|------------------------------------|------------------------------------|
G|------------------------------------|------------------------------------|
D|-------6--------6--------6--------6-|-------6--------6--------6--------6-|
A|-------6--------6--------6--------6-|-------6--------6--------6--------6-|
E|-------4--------4--------4--------4-|-------4--------4--------4--------4-|


E|------------------------------------|------------------------------------|
B|-------10-------10-------10-------10|-------10-------10-------10-------10|
G|-------10-------10-------10-------10|-------10-------10-------10-------10|
D|-------10-------10-------10-------10|-------10-------10-------10-------10|
A|-------8--------8--------8--------8-|-------8--------8--------8--------8-|
E|------------------------------------|------------------------------------|

Repeat once, and go into...

==============
Instrumental 2
==============

2:33 - 3:04
Repeat Instrumental 1 riffs as needed, then...

========
Chorus 3
========

3:04 - 3:42
Continue Instrumental riffs together, until solo/outro...


==========
Solo
==========

3:42-4:30
Guitar 2 (Carl) plays this sequence of  fuzzed out chords, 8 beats each...
E|---------|---------|---------|---------|
B|---------|---------|---------|---------|
G|---------|---------|---------|---------|
D|---8~~---|---10~~--|---6~~---|---3~~---|
A|---8~~---|---10~~--|---6~~---|---3~~---|
E|---6~~---|---8~~~--|---4~~---|---1~~---|

3:42
Guitar 1 (Jim), soloing, capo 8
E|------------------------------------|------------------------------------|
B|----------3h5----5~~~~--p3----------|----------------------------------3-|
G|------4-----------------------------|------------------------------4-----|
D|------------------------------------|------------------------------------|
A|------------------------------------|------------------------------------|
E|------------------------------------|------------------------------------|

3:46
E|------------------------------------|------------------------------------|
B|----5----5----5~~~~----p3-----5~~~~-|----p3------------------------------|
G|------------------------------------|---------------------------4----4---|
D|------------------------------------|------------------------------------|
A|------------------------------------|------------------------------------|
E|------------------------------------|------------------------------------|

3:50
E|------------------------------------|------------------------------------|
B|------------------------------------|------------------------------------|
G|-------5----4------2~~~~----p0------|-------5-----------2~~~~----p0------|
D|------------------------------------|------------------------------------|
A|------------------------------------|------------------------------------|
E|------------------------------------|------------------------------------|

3:54
E|------------------------------------|------------------------------------|
B|------------------------------------|-------------------------------3h5--|
G|-------0h2~~~~---p0-----------------|----------------------------4-------|
D|------------------------------------|------------------------------------|
A|------------------------------------|------------------------------------|
E|------------------------------------|------------------------------------|

3:58
E|------------------------------------|------------------------------------|
B|-------5~~~~--p3--------------------|---------3--5-----5~~~-p3-----5~~~--|
G|------------------------------------|-----4------------------------------|
D|------------------------------------|------------------------------------|
A|------------------------------------|------------------------------------|
E|------------------------------------|------------------------------------|

4:02
E|-----------------------5b-----------|------------------------------------|
B|-p3---------------------------------|------------------------------------|
G|------------------------------------|-------4~~~~~~~~--------------------|
D|------------------------------------|------------------------------------|
A|------------------------------------|------------------------------------|
E|------------------------------------|------------------------------------|

4:06
E|----5~~~-p3---------5~~~-p3---------|-----------3-----3p2----------------|
B|------------------------------------|-----------------------5~~~~--p3----|
G|------------------------------------|------------------------------------|
D|------------------------------------|------------------------------------|
A|------------------------------------|------------------------------------|
E|------------------------------------|------------------------------------|

4:10
E|-----------------3p2----------------|------------------------------------|
B|-----------------------5~~~~--p3----|--------------3----3-------5~~~~~---|
G|------------------------------------|------------------------------------|
D|------------------------------------|------------------------------------|
A|------------------------------------|------------------------------------|
E|------------------------------------|------------------------------------|

4:14
E|------------------------------------|------------------------------------|
B|------------------------------------|------------------------------------|
G|------------4-------2~~~~---p0------|----------2~~~~---p0----------------|
D|----------------------------------2-|------------------------2-----------|
A|------------------------------------|------------------------------------|
E|------------------------------------|------------------------------------|

4:18
E|------------------------------------|------------------------------------|
B|------------------------------------|------------------------------------|
G|------2~~~~--p0------2~~~~--p0------|------------------------------------|
D|------------------------------------|--2---------------------------------|
A|------------------------------------|------------------------------------|
E|------------------------------------|------------------------------------|

4:22
E|----------10----10----10----10b-----|-----------------7----7----8----8p7-|
B|------------------------------------|------------------------------------|
G|------------------------------------|------------------------------------|
D|------------------------------------|------------------------------------|
A|------------------------------------|------------------------------------|
E|------------------------------------|------------------------------------|

4:26
E|------------------------------------|---7---10p7---10b---7---10p7---10b~~|
B|--10~~--p8---10~~--p8---10~~--p8----|------------------------------------|
G|------------------------------------|------------------------------------|
D|------------------------------------|------------------------------------|
A|------------------------------------|------------------------------------|
E|------------------------------------|------------------------------------|

Добавлено: 01.04.2016
Другие материалы по этой песне:
  • Аккорды и текст

Страница создана 01.04.2016
http://primanota.ru/my-morning-jacket/spring-among-living-chords.htm
Привет, Гость.
Предлагаем пройти революционный курс по гитаре.
Подарок от PrimaNota.Ru, забирай!