PrimaNota.ru - самый крупный в мире бесплатный архив песенных текстов, аккордов, табулатур и нот


My Morning Jacket - Remnants - текст песни, таба, видео

Регистрация Запомнить меня
Войти через:  Facebook Google Twitter Vk Yandex Mail.ru

My Morning Jacket - Remnants - текст песни, таба, видео

Печатать
Просмотров: 153
Уроки эстрадного вокала в Санкт-Петербурге
-------------------------------------------------------------------------------
                             remnants - mmj-------
-------------------------------------------------------------------------------
Tabbed by: TheTroy
Tuning: standard CAPO 4!!!!

everything is relative to the capo on 4

intro
e|---------------------------------------------------------------------------|
B|---------------------------------------------------------------------------|
G|---------------------------------------------------------------------------|
D|-2----2-22-----------------------------------------------------------------|
A|-2----2-22-----------------------------------------------------------------|
E|-0----0-00-----------------------------------------------------------------|

intro part 2
e|---------------|--|--------------------------------------------------------|
B|---------------|--|--------------------------------------------------------|
G|---------------|--|--------------------------------------------------------|
D|----2----------|X3|----2---------------------------------------------------|
A|----------0h2p0|--|--------------------------------------------------------|
E|-0~---0-0------|--|-0~---0-0-3b--------------------------------------------|

guitar 2
e|---------------------------------------------------------------------------|
B|---------------------------------------------------------------------------|
G|----9----------------------------------------------------------------------|
D|--------7b9r7--------------------------------------------------------------|
A|-7----7--------------------------------------------------------------------|
E|---------------------------------------------------------------------------|

verse- guitar 1 intro with these chords put in at some points
e|---------------------------------------------------------------------------|
B|---------------------------------------------------------------------------|
G|-5-5-5-5-5-5-5-5-2-2-2-2-2-2-2-2-------------------------------------------|
D|-5-5-5-5-5-5-5-5-2-2-2-2-2-2-2-2-------------------------------------------|
A|-3-3-3-3-3-3-3-3-0-0-0-0-0-0-0-0-------------------------------------------|
E|---------------------------------------------------------------------------|

pre-chorus
e|---------------------------------------------------------------------------|
B|---------------------------------------------------------------------------|
G|-5-5-5-5-5-5-5-5-5-5-5-5-5-5-5-5-2-2-2-2-2-2-2-2-2-2-2-2-2-2-2-2-----------|
D|-5-5-5-5-5-5-5-5-5-5-5-5-5-5-5-5-2-2-2-2-2-2-2-2-2-2-2-2-2-2-2-2-----------|
A|-3-3-3-3-3-3-3-3-3-3-3-3-3-3-3-3-0-0-0-0-0-0-0-0-0-0-0-0-0-0-0-0-----------|
E|---------------------------------------------------------------------------|

guitar 1 plays verse/intro after chords

guitar 2 does this
e|----12---------------------------------------------------------------------|
B|----------10b12r10---------------------------------------------------------|
G|-9------9------------------------------------------------------------------|
D|---------------------------------------------------------------------------|
A|---------------------------------------------------------------------------|
E|---------------------------------------------------------------------------|

chorus
e|---------------------------------------------------------------------------|
B|---------------------------------------------------------------------------|
G|-5-5-5-5-5-5-5-5-7-7-7-7-9-9-9-9-2-2-2-2-2-2-2-2-2-2-2-2-2-2-2-2-----------|
D|-5-5-5-5-5-5-5-5-7-7-7-7-9-9-9-9-2-2-2-2-2-2-2-2-2-2-2-2-2-2-2-2-----------|
A|-3-3-3-3-3-3-3-3-5-5-5-5-7-7-7-7-0-0-0-0-0-0-0-0-0-0-0-0-0-0-0-0-----------|
E|---------------------------------------------------------------------------|

guitar 2 plays solo
e|-15b17-17-17-17-17-------12------------------------------------------------|
B|-------------------15-15-15b17~--12----------------------------------------|
G|---------------------------------14b16-16-16-16-16---14b16r14-14b16r14p12--|
D|---------------------------------------------------------------------------|
A|---------------------------------------------------------------------------|
E|---------------------------------------------------------------------------|

e|----15-17-15-17b19r17-15-----10-12-10-12b14r12-10-----15-17-15-17bb--------|
B|-------------------------17-----------------------12-----------------------|
G|-p9------------------------------------------------------------------------|
D|---------------------------------------------------------------------------|
A|---------------------------------------------------------------------------|
E|---------------------------------------------------------------------------|

guitar 2 plays its pre-chorus in verse

guitar 1 does verse

chorus (no pre-chorus)

solo2
e|------------------15-17b19r17--10-12-10-12b14r12-10-----15-17-15-17b19r----|
B|-8b10-10-12t15/17-----------------------------------12------------------17-|
G|---------------------------------------------------------------------------|
D|---------------------------------------------------------------------------|
A|---------------------------------------------------------------------------|
E|---------------------------------------------------------------------------|


END!!!


| /  slide up
| \  slide down
| h  hammer-on
| p  pull-off
| ~  vibrato
| +  harmonic
| x  Mute note
===============================================================================
Добавлено: 11.03.2012
Другие материалы по этой песне:
  • Аккорды и текст

Страница создана 11.03.2012
http://primanota.ru/my-morning-jacket/remnants-chords.htm
Привет, Гость.
Предлагаем пройти революционный курс по гитаре.
Подарок от PrimaNota.Ru, забирай!