PrimaNota.ru - самый крупный в мире бесплатный архив песенных текстов, аккордов, табулатур и нот


My Morning Jacket - Lay Low - текст песни, таба, видео

Регистрация Запомнить меня
Войти через:  Facebook Google Twitter Vk Yandex Mail.ru

My Morning Jacket - Lay Low - текст песни, таба, видео

Печатать
Просмотров: 124
This is not my work. Tom Barton is the one who
 made it. full credit goes to him

Lay Low

Tabbed by TomBarton@gmail.com

Capo on 5

Tuning is DADGBe

Tabs relative to the capo 

****UPDATE**** - the solo has been updated to all of it and is now relative to capo

intro/interludes
e-----------------------------------------------------------------------|
B-----------------------------------------------------------------------|
G----------------------------------4---2--------------------4---2-------|
D-0-0-0------0-0-0-0------0-0--2/4--4----0h2/4------0-0-2/4--4--0----0--|
A-0-0-0--0h2---0-0-0--0h2---0--------0----------0h2---0-------0-0-0h2---|
E-0-0-0--------0-0-0--------0-------------------------0-----------------|
       ^-- keep these bottom 2 ringing

verse
    D                G  E  A

e-----------------------------------------|
B-----------------------------------------|
G-----------------------------------------|
D---0-0-0-----0------5--2--7--------------|  whole thing (x2)
A---0-0-0--0h2--(2x)-5--2--7--------------|
E---0-0-0------------5--2--7--------------|

lead into/chorus:
             F#  E

e------------2---0-----|
B------------2---0-----|
G------------2---0-----|
D---2--3-4---4---2-----|
A---2--3-4---4---2-----|
E---2--3-4---4---2-----|

F#

LAY LOW LET THE FETUS ROCK

         E

I GOT ALL THAT I WANT HERE IN YOU TONITE

                   F#

AND WE'LL PASS OUTON THE BEDROOM FLOOR

               E

AFTER GOIN LIKE THIS SO LONG.

F#

LAY LOW LET THE FETUS ROCK

        E

I GOT ALL THAT I WANT HERE IN YOU TONITE

                   F#

AND WE'LL PASS OUTON THE BEDROOM FLOOR

               E

AFTER GOIN FULL TILT SO LONG.

G                            A

Aaaaaaaaaaaahhh,  Aaaaaaaaaaahh

F#                    E

yeeaaaaaaaaah, ooohhhh-ooohh

F#                    E

yeeaaaaaaaaah, ooohhhh-ooohh


Solo        ( t = trill notes)
e-9t5----5-7b-r7-5---5----9t5|--|------------------------------------|
B------7-----------7---7-----|--|-10b12-10b12-10~-7-7-10-8-7---------|
G----------------------------|--|----------------------------9-9-7-9-|
D----------------------------|x?|------------------------------------|
A----------------------------|--|------------------------------------|
E----------------------------|--|------------------------------------|

e---------|--|------------------------|--|---------------------------|
B-7-------|--|---------------7--------|--|---------------------------|
G---9-7---|--|-9-9-7-9-9-7-9---9-7---7|--|-9bbbbb-9br9-7h9p7----7-9--|
D-------9-|x?|---------------------9--|X?|-------------------9-------|
A---------|--|------------------------|--|---------------------------|
E---------|--|------------------------|--|---------------------------|

e---------------|------7---|--|--12b14-14r12p10-12p10----10-12b14r12-|
B---------------|7~-10---7~|--|-----------------------12-------------|
G-9br9-7---7-6--|----------|x?|--------------------------------------|
D--------9------|----------|--|--------------------------------------|
A---------------|----------|--|--------------------------------------|
E---------------|----------|--|--------------------------------------|

e---|-9~10-9-10-9--12t9--9~-h10p9h10p9---|---------------------------|
B-12|----------------------------------12|---------------------------|
G---|------------------------------------|-there. its that hook------|
D---|------------------------------------|-from now on to end. ------|
A---|------------------------------------|---------------------------|
E---|------------------------------------|--------bye.---------------|
Добавлено: 27.04.2012
Другие материалы по этой песне:
  • Аккорды и текст

Страница создана 13.04.2012
http://primanota.ru/my-morning-jacket/lay-low-chords.htm
Привет, Гость.
Предлагаем пройти революционный курс по гитаре.
Подарок от PrimaNota.Ru, забирай!