PrimaNota.ru - самый крупный в мире бесплатный архив песенных текстов, аккордов, табулатур и нот


My Morning Jacket - Get The Point - аккорды и текст, таба, видео

Регистрация Запомнить меня
Войти через:  Facebook Google Twitter Vk Yandex Mail.ru

My Morning Jacket - Get The Point - аккорды и текст, таба, видео

Печатать
Просмотров: 139
Get The Point
My Morning Jacket
Couldn't find a tab/chords for this one so I figured I'd try my hand at it. First time submitting. The "bass"
part played on the D string in the intro may not be 100%, but it should give you a place to start.

Standard Tuning, Capo 1

Bm/D = 2
     3
     4
     -
     x
     x


Intro:

5------------5---7p5-------------5------|
-------7---------------5h7--------------|
----------------------------------------|
0---0-----0------0-----------0-------0--|
----------------------------------------|
----------------------------------------|


3------------3---5p3-------------3------|
-------3---------------3h5--------------|
----------------------------------------|
0---0-----0------0-----------0-------0--|
----------------------------------------|
----------------------------------------|


(D chord shape)    |(D chord shape)     |(D chord shape)    
2---------------2--|-9---------------9--|-7---------------7--|
---------3---------|---------10---------|---------8----------|
-------------------|--------------------|--------------------|
0---0--------0-----|-0---0-------0------|-0---0-------0------|
-------------------|--------------------|--------------------|
-------------------|--------------------|--------------------|


(Dsus4 chord shape)|(D chord shape)
3---------------3--|-2---------------2--|-2---------------2--|-2---------------2--|-2---------------2--|
---------3---------|----------3---------|----------3---------|----------3---------|----------3---------|
-------------------|--------------------|--------------------|--------------------|--------------------|
-0---0-------0-----|-0----0-------0-----|-0---0-------0------|-0----0-------0-----|-0---0-------0------|
-------------------|--------------------|--------------------|--------------------|--------------------|
-------------------|--------------------|--------------------|--------------------|--------------------|


LISTEN FOR FINGER PICKING PATTERN...THESE ARE JUST THE CHORDS TO GO THROUGH THE SONG.

Verse 1:
D
Well we talked and talked and carried on from
Bm/D
Sundown till the break of dawn
Em                       A
We put the needle on the line
             D
It just kept skipping

D
And then I realized all the time I was wasting
Bm/D
Trying to mend a broken situation
Em              A                        D
Day dreaming of leaving I only had to do it

D
And now it's done, you still call every day
Bm/D
To no avail
D7                              G
I never have an answer, I never seem to be there for you



Pre-Chorus:

Em                       A
But there's only so many ways one can
Em              A
Look at a given situation
Em             A               D              Bm
And I wish you all the love in this world and beyond



Chorus:

           Em               A
I hope you get the point
           D                Bm
I hope you get the point
           Em               A
I hope you get the point
           D                Bm
The thrill is gone
           Em               A
I hope you get the point
                    D
I think our love is done



PLAY INTRO AGAIN (don't go to high part in "D shape" section)



Verse 2:

D
Well I was feeling sympathetic
          Bm/D
But still sorry for myself
Em     A                     D
Flying blind I really wasn't listening

D                                         Bm/D
So I'm trying to tell you plainly how I'm feeling day to day
D7                                  G
And I'm so sorry now that you ain't feeling the same way


Pre-Chorus:

Em                    A
There is only so many ways that one can
Em              A
Look at a given situation
Em             A               D              Bm
And I wish you all the love in this world and beyond



Chorus:

            Em               A
I guess you get the point
            D                Bm
I guess you get the point
            Em               A
I guess you get the point
           D                 Bm
The thrill is gone, gone, gone
           Em               A
I hope you get the point
           D                Bm
I hope you get the point
           Em               A
I hope you get the point
            D               
The love is done



PLAY INTRO....final note is 10th fret high e string
Добавлено: 05.09.2015
Другие материалы по этой песне:
  • Аккорды и текст

Страница создана 05.09.2015
http://primanota.ru/my-morning-jacket/get-point-chords.htm
Привет, Гость.
Предлагаем пройти революционный курс по гитаре.
Подарок от PrimaNota.Ru, забирай!