PrimaNota.ru - самый крупный в мире бесплатный архив песенных текстов, аккордов, табулатур и нот


My Dying Bride - One Of Beautys Daughters - таба, бас-таба, видео

Регистрация Запомнить меня
Войти через:  Facebook Google Twitter Vk Yandex Mail.ru

My Dying Bride - One Of Beautys Daughters - таба, бас-таба, видео

Печатать
Просмотров: 108
================================================================================
                           M Y   D Y I N G   B R I D E

                                        -

                 O N E   O F   B E A U T Y ' S   D A U G H T E R S
================================================================================


                            A LINE OF DEATHLESS KINGS
                          (c) Peaceville Records - 2006
                           http://www.mydyingbride.org/


                      Tune Down a 1/2 Step [7-String Guitars]
                               Bb Eb Ab  Db Gb Bb Eb

                                   Tempo = 70 BPM
                                Time Signature = 4/4



                          -----------------------------
                                  Transcribed by

                                  PADDY MCMULLAN
                            stinkypoohpants@yahoo.co.uk

                                   Version 2.0
                                20th  January 2010
                     (Corrections Outlined at Bottom of Tab)
                             -----------------------

                             Tablature Symbols Used:


 p         -  Pull-Off
 h         -  Hammer-On
 P.M...    -  Palm Mute
 \         -  Slide Down to/Down From
 /         -  Slide Up To/Up From
 ( / )     -  Legato Slide
 ( )       -  Ghost Note/Tied Note/Implied Note
 REST      -  Rest and sustain rest for duration of blank space
 <5>       -  Natural Harmonics
 X\        -  Pick Scrapes



================================================================================
Riff 1a: Guitar 1 with Heavy Distortion (Play 4 times)
================================================================================


||-----------------------| |
||-----------------------| |
||-----------------------|*|
||-----------------------| |
||--4--------------------|*|
||-------2--4------4--2--| |
||-------0------------0--| |
        P.M          ...



================================================================================
Riff 1b: Guitar 2 with Heavy Distortion (Play 4 times)
================================================================================


||-----------------------| |
||-----------------------| |
||-----------------------|*|
||-----------------------| |
||--7-------4------4-----|*|
||--5----2--4------4--2--| |
||--5----0--2------2--0--| |
        ...          ...



================================================================================
Riff 2a: Guitar 1 (Play 4 times)
================================================================================


||-----------------------------| |
||-----------------------------| |
||-----------------------------|*|
||-----------------------------| |
||--4---4-6-7------------------|*|
||------------4----2--(2h4p2)--| |
||-----------------0-----------| |
                  ...



================================================================================
Riff 2b: Guitar 2 (Play 4 times)
================================================================================


||---------------------------| |
||---------------------------| |
||---------------------------|*|
||---------------------------| |
||--4---4-----4--------------|*|
||--5---5-4h5-4----2--2h4-2--| |
||--5---5-----2----0------0--| |
                  ...



================================================================================
Lead Riff 1: Guitar 3 with Heavy Distortion (And a multitude of effects)
================================================================================


[ The volume gradually fades in, reaching its peak during bar 4 ]


||--------------------------------|--------------------------------|
||--------------------------------|--------------------------------|
||--------------------------------|--------------------------------|
||--------------------------------|--------------------------------|
||--4--4--(5\4)-4--4--4--(7\4)-4--|--4--4--(5\4)-4--4--4--(7\4)-4--|
||--4--4--(5\4)-4--4--4--(7\4)-4--|--4--4--(5\4)-4--4--4--(7\4)-4--|
||--2--2--(3\2)-2--2--2--(5\2)-2--|--2--2--(3\2)-2--2--2--(5\2)-2--|


|--------------------------------|-------------------------------| |
|--------------------------------|-------------------------------| |
|--------------------------------|-------------------------------|*|
|--------------------------------|-----------------------5-5-5-5-| |
|--4--4--(5\4)-4--4--4--(7\4)-4--|--4--4--(5\4)-4--4--4--5-5-5-5-|*|
|--4--4--(5\4)-4--4--4--(7\4)-4--|--4--4--(5\4)-4--4--4--3-3-3-3-| |
|--2--2--(3\2)-2--2--2--(5\2)-2--|--2--2--(3\2)-2--2--2----------| |



* At this point, guitars 1 and 2 play the following:


||-----------------------||
||--R-          ---------||
||--E-          ---------||
||--S-          -5-5-5-5-||
||--T-          -5-5-5-5-||
||---------------3-3-3-3-||
||-----------------------||



================================================================================
Riff 3.1: Guitar 1 (Play 3 times)
================================================================================


||--------------------------------------------|
||--------------------------------------------|
||--------------------------------------------|
||--(4)--(4)--(4)---(4)--(4)--(4)--(4)---(4)--|
||---4----4----5p 4--4----4----4----7p 4--4---|
||---4----4----4-----4----4----4----4-----4---|
||--------------------------------------------|

|--------------------------------------------|
|--------------------------------------------|
|--------------------------------------------|
|--(4)--(4)--(4)---(4)--(4)--(4)--(4)---(4)--|
|---4----4----5p 4--4----4----4----7p 4--4---|
|---4----4----4-----4----4----4----4-----4---|
|--------------------------------------------|

|--------------------------------------------|
|--------------------------------------------|
|--------------------------------------------|
|--(4)--(4)--(4)---(4)--(4)--(4)--(4)---(4)--|
|---4----4----5p 4--4----4----4----7p 4--4---|
|---4----4----4-----4----4----4----4-----4---|
|--------------------------------------------|

|------------------------------------------| |
|------------------------------------------| |
|------------------------------------------|*|
|--(4)--(4)--(4)---(4)--(4)--(4)-5-5-5-5-5-| |
|---4----4----5p 4--4----4----4--5-5-5-5-5-|*|
|---4----4----4-----4----4----4--3-3-3-3-3-| |
|------------------------------------------| |



================================================================================
Riff 3.2: Guitar 2 (Play 3 times)
================================================================================


||--------------------------------|--------------------------------|
||--------------------------------|--------------------------------|
||--------------------------------|--------------------------------|
||--------------------------------|--------------------------------|
||--4--4--(5\4)-4--4--4--(7\4)-4--|--4--4--(5\4)-4--4--4--(7\4)-4--|
||--4--4--(5\4)-4--4--4--(7\4)-4--|--4--4--(5\4)-4--4--4--(7\4)-4--|
||--2--2--(3\2)-2--2--2--(5\2)-2--|--2--2--(3\2)-2--2--2--(5\2)-2--|

|--------------------------------|--------------------------------| |
|--------------------------------|--------------------------------| |
|--------------------------------|--------------------------------|*|
|--------------------------------|----------------------5-5-5-5-5-| |
|--4--4--(5\4)-4--4--4--(7\4)-4--|--4--4--(5\4)-4--4--4-5-5-5-5-5-|*|
|--4--4--(5\4)-4--4--4--(7\4)-4--|--4--4--(5\4)-4--4--4-3-3-3-3-3-| |
|--2--2--(3\2)-2--2--2--(5\2)-2--|--2--2--(3\2)-2--2--2-----------| |



================================================================================
Lead Riff 2: Guitar 1 (Play twice) [ Guitar 2 plays Riff 3.2 throughout ]
================================================================================


||----------------------|--------------------|------------------------|
||----------------------|--------------------|------------------------|
||----------------------|--------------------|------------------------|
||----------------------|--------------------|------------------------|
||----------------------|--------------------|------------------------|
||--4----------(4/7)----|--6------------7----|--9----11-----  \--4----|
||----------------------|--------------------|------------------------|


|----------------------------| |
|----------------------------| |
|----------------------------|*|
|------------------5-5-5-5-5-| |
|------------------5-5-5-5-5-|*|
|-(4/7)--6---------3-3-3-3-3-| |
|----------------------------| |



================================================================================
Riff 4: Guitars 1 and 2 (Play 4 times)
================================================================================


||---------------------------------|---------------------------------------| |
||---------------------------------|---------------------------------------| |
||---------------------------------|---------------------------------------|*|
||---------------------------------|---------------------------------------| |
||--6-7-4--7--------4--7--------4--|--6-7-4--7--------4--(7\6)-------------|*|
||--4-5-4--5--4--5--4--5--4--5--4--|--4-5-4--5--4--5--4--(5\4)-3--3--3--3--| |
||--4-5-2--5--4--5--2--5--4--5--2--|--4-5-2--5--4--5--2--(5\4)-3--3--3--3--| |
              ....        ....                  ....           ..........



================================================================================
Guitars 1 and 2 repeat Riff 3 twice
================================================================================

================================================================================
Guitar 1 repeats Lead Riff 2 once, accompanied by Riff 3.2 played by guitar 2
================================================================================

================================================================================
Guitars 1 and 2 repeat Riff 4 four times
================================================================================

================================================================================
Guitars 1 and 2 repeat Riff 1 four times
================================================================================

================================================================================
Guitars 1 and 2 repeat Riff 2 four times
================================================================================

================================================================================
Riff 5a: Guitar 1 (Play once through)
================================================================================


||-------------------|-------------------|------------------------|
||-------------------|-------------------|------------------------|
||-------------------|-------------------|------------------------|
||--7----------------|-------------------|--7---------------------|
||--7----------------|--7----------------|--7---------------------|
||--5----------------|-------------------|--5-----------5h7----5--|


|----------------------|-------------------|-------------------|
|----------------------|-------------------|-------------------|
|----------------------|-------------------|-------------------|
|----------------------|--7----------------|-------------------|
|----------------------|--7----------------|--5----------------|
|--4-----------2----4--|--5----------------|-------------------|


|-----------------------|-------------------||
|-----------------------|-------------------||
|-----------------------|-------------------||
|--7--------------------|-------------------||
|--7--------------------|-------------------||
|--5----------5h7----5--|--4----------------||



Hold the last note for a further 2 bars



================================================================================
Riff 5b: Guitar 2 (Play 4 times)
================================================================================


||-------------------|-------------------| |
||-------------------|-------------------| |
||-------------------|-------------------|*|
||--7----------------|-------------------|*|
||--7----------------|--7----------------| |
||--5----------------|--4----------------| |



Hold the last chord for a further 2 bars



================================================================================
Outro
================================================================================


The outro consists of volume swells, panning from left to right,
then right to left.  A rough estimate of the harmonics used here are is follows:


||------------||
||------------||
||------------||
||------------||
||--<7>-------||
||--<5>-------||



Each swell lasts for only one bar.



================================================================================
End
================================================================================


Tab summary:        Riff 1a + 1b X 4
                    Riff 2a + 2b X 4
                    Lead Riff 1 X 1
                    Riff 3 X 3
                    Lead Riff 2 X 1
                    Riff 4 X 4
                    Riff 3 X 2
                    Lead Riff 2 X 1
                    Riff 4 X 4
                    Riff 1 X 4
                    Riff 2 X 4
                    Riff 5a X 1 + Riff 5b X 4
                    Outro
                    
                    END


-------------------------
Corrections (20/01/2010):
-------------------------

* Changed the guitar tuning to standard 7-string.
* Corrected numerous small errors.
Добавлено: 15.03.2012
Другие материалы по этой песне:

Страница создана 15.03.2012
http://primanota.ru/my-dying-bride/one-of-beautys-daughters-chords.htm
Привет, Гость.
Предлагаем пройти революционный курс по гитаре.
Подарок от PrimaNota.Ru, забирай!