PrimaNota.ru - самый крупный в мире бесплатный архив песенных текстов, аккордов, табулатур и нот


My Dying Bride - Bring Me Victory - текст песни, таба, видео

Регистрация Запомнить меня
Войти через:  Facebook Google Twitter Vk Yandex Mail.ru

My Dying Bride - Bring Me Victory - текст песни, таба, видео

Печатать
Просмотров: 229
Авторы музыки: My Dying Bride
Авторы текста: My Dying Bride
-------------------------------------------------------------------------------
                            BRING ME VICTORY - My Dying Bride
-------------------------------------------------------------------------------
Tabbed by: My Dying Bride.
Email: moraj.vip@gmail.com

http://www.youtube.com/watch?v=_MaSVSgpMwU


Tuning: Tune Down 1 & 1/2 Steps
         C# F# B E G# C#
                           
                                 
-------------------------------------------------------------------------------
RIFF 1 - BOTH GUITARS UNISON

C#|-----------------------------------------------------------------|
G#|-----------------------------------------------------------------|
E |-----------------------------------------------------------------|
B |--2-----------------------------9-7-------------7-5--------------|
F#|--2-----------------------------7-5-------------5-3--------------|
C#|--0-------------5-3-------------7-5-------------5-3--------------|

HARMONY OVER RIFF 1

C#|------------------------------------------------------------------|
G#|------------------------------------------------------------------|
E |--------------------------------------------------------------7h9-|
B |--2-----------------------------5-4-------------7/9---------------|
F#|--2-------------7-5-----------------------------------------------|
C#|--0---------------------------------------------------------------|

HAMISH LEAD OVER RIFF 1

C#|------14-------15-------14-------15-------12-14-------14-------15-------14-------15-------12-14|
G#|12-13----12-13----12-13----12-13----12-13-------12-13----12-13----12-13----12-13----12-13------|
E |-----------------------------------------------------------------------------------------------|
B |-----------------------------------------------------------------------------------------------|
F#|-----------------------------------------------------------------------------------------------|
C#|-----------------------------------------------------------------------------------------------|

C#|------14-------15-------14-------15-------12-14-------14-------15-------17-------15-------12-14|
G#|12-13----12-13----12-13----12-13----12-13-------12-13----12-13----12-13----12-13----12-13------|
E|------------------------------------------------------------------------------------------------|
B|------------------------------------------------------------------------------------------------|
F#|-----------------------------------------------------------------------------------------------|
C#|-----------------------------------------------------------------------------------------------|

BRIDGE (PAUSE BEFORE RIFF 2)

C#|------------------------|
G#|------------------------|
E |------------------------|
B |--2---------------------|
F#|--2-------------\7-5----|
C#|--0---------------------|

RIFF 2

C#|----------------------------------------------------------------------|
G#|----------------------------------------------------------------------|
E |----------------------------------------------------------------------|
B |----------------------------------------------------------------------|
F#|------9-----10-----9-----10-----7-9-----9-----10-----9-----10-----7-9-|
C#|--7-8---7-8----7-8---7-8----7-8-----7-8---7-8----7-8---7-8----7-8-----|

HARMONY OVER RIFF 2


C#|---------------------------------------------------------------|
G#|---------------------------------------------------------------|
E |---------------------------------------------------------------|
B |---------------------------------------------------------------|
F#|---------------------------------------------------------------|
C#|--0-----------7\3-----------5-5h7-5-----------5\3-----------2--|

HARMONY OVER RIFF 2 (CHORDS)

C#|---------------------------------------------------------------|
G#|---------------------------------------------------------------|
E |---------------------------------------------------------------|
B |--2------------------------------------------------------------|
F#|--2-----------9\5-----------7-7h9-7-----------7-5-----------4--|
C#|--0-----------7\3-----------5-5h7-5-----------5\3-----------2--|


RIFF 1 - BOTH GUITARS UNISON


C#|-----------------------------------------------------------------------------------------------|
G#|-----------------------------------------------------------------------------------------------|
E |-----------------------------------------------------------------------------------------------|
B |--2-----------------------------9-7-------------7-5--------------------------------------------|
F#|--2-----------------------------7-5-------------5-3-------------9-----10-----9-----10-----7-9--|
C#|--0-------------5-3-------------7-5-------------5-3---------7-8---7-8----7-8---7-8----7-8------|

************************************

| /   slide up
| \   slide down
| h   hammer-on
| p   pull-off
| ~   vibrato
| +   harmonic
| x   Mute note
| b   Bend
| pb  Pre-bend
| br  Bend release
| pbr Pre-bend release
| brb Bend release bend

************************************
Добавлено: 11.07.2012
Другие материалы по этой песне:
  • Аккорды и текст

Страница создана 11.07.2012
http://primanota.ru/my-dying-bride/bring-me-victory-chords.htm
Привет, Гость.
Предлагаем пройти революционный курс по гитаре.
Подарок от PrimaNota.Ru, забирай!