PrimaNota.ru - самый крупный в мире бесплатный архив песенных текстов, аккордов, табулатур и нот


My Dead Girlfriend - Cattle Mutilation Strange Ufo - таба, видео

Регистрация Запомнить меня
Войти через:  Facebook Google Twitter Vk Yandex Mail.ru

My Dead Girlfriend - Cattle Mutilation Strange Ufo - таба, видео

Печатать
Просмотров: 67
Tabbed by: Nícolas Henrich
Music from: IXTAB (2010) 
Performed by: My Dead Girlfriend (Shinda Boku no Kanojo)

I hope it can be useful to you! 
(PS: This tab is about the Rythm Guitar!)

That's the Base:
        Cm                     Gm
E|---------------(3)------------------------------------------------------------|
A|---------------(3)------------------------------------------------------------|   In "Cm" chord, you can do
D|--5-5-5-5-5-5-5--(5)----------------------------------------------------------|   some Arpeggios, like the 
G|--5-5-5-5-5-5-5----(5)-5~-5-5-5-5-5-5-5-5-5-5-5-5-5-5-5-----------------------|   MDG guitarrist does. The  
B|--3-3-3-3-3-3-3--------5~-5-5-5-5-5-5-5-5-5-5-5-5-5-5-5-----------------------|   arpeggio is in (0)(0)(5), 
E|-----------------------3~-3-3-3-3-3-3-3-3-3-3-3-3-3-3-3-----------------------|   you can see at the tab,  
                                                                                 between Cm and Gm chords! If
                                                                                 you want to play the arpeggio,
                                                                                 just play Cm 4 times, no 7 
                                                                                 times!

E|----------------------------------------------------------------------|
A|----------------------------------------------------------------------|   In "7-9-9", you give a rapid
D|-7-7-7-7-7-9~-5~-5-5-5-5-5-5-5-5-5-5-5-5-5-5-5-5----------------------|   pass. I recommend you hear
G|-7-7-7-7-7-9~-5~-5-5-5-5-5-5-5-5-5-5-5-5-5-5-5-5----------------------|   the music when you play this
B|-5-5-5-5-5-7~-3~-3-3-3-3-3-3-3-3-3-3-3-3-3-3-3-3----------------------|   tab, because it will help in
E|----------------------------------------------------------------------|   the comprehension.

(Vocals)

First Solo's Rythm Guitar:

        Cm                     Gm
E|------------------------------------------------------------------------|
A|------------------------------------------------------------------------|   
D|--5-5-5-5-5-5-5---------------------------------------------------------|   
G|--5-5-5-5-5-5-5--5~-5-5-5-5-5-5-5-5-5-5-5-5-5-5-5-----------------------|     
B|--3-3-3-3-3-3-3--5~-5-5-5-5-5-5-5-5-5-5-5-5-5-5-5-----------------------|   
E|-----------------3~-3-3-3-3-3-3-3-3-3-3-3-3-3-3-3-----------------------|    
                                                                             
                                                                                 
E|------------------------------------------------------------------------|
A|------------------------------------------------------------------------| You can play some arpeggios  
D|-7-7-7-7-7-9~-5~-5-5-5-5-5-5-5-5-5-5-5-5-5-5-5-5------------------------| here too, especially in the
G|-7-7-7-7-7-9~-5~-5-5-5-5-5-5-5-5-5-5-5-5-5-5-5-5------------------------| "3-5-5".
B|-5-5-5-5-5-7~-3~-3-3-3-3-3-3-3-3-3-3-3-3-3-3-3-3------------------------|  
E|------------------------------------------------------------------------|  

(Vocals)

E|-------------------------------------------------------|
A|-------------------------------------------------------|
D|-7~-9-9-5-5--7~-9-9-5-5--7--9-9-5-5--------------------|
G|-7~-9-9-5-5--7~-9-9-5-5--7--9-9-5-5--------------------|
B|-5~-7-7-3-3--5~-7-7-3-3--5~-7-7-3-3--------------------|
E|-------------------------------------------------------|

CHORUS:

        Cm                     Gm
E|----------(3)----------------------------------------------------------|
A|----------(3)----------------------------------------------------------|   In "Cm" chord, you can do
D|--5-5-5-5--(5)---------------------------------------------------------|   some Arpeggios, like the 
G|--5-5-5-5----(5)-5~-5-5-5-5-5-5-5--------------------------------------|   MDG guitarrist does. The  
B|--3-3-3-3--------5~-5-5-5-5-5-5-5--------------------------------------|   arpeggio is in (0)(0)(5).  
E|-----------------3~-3-3-3-3-3-3-3--------------------------------------|   You can do it in Gm too.
                                                                             
                                                                                 
E|------------------------------------------------------------------------|
A|------------------------------------------------------------------------| You can play some arpeggios  
D|-7-7-7-7-7-7-7-7h9-9-9-9-9-9-9-9----------------------------------------| here too, especially in the
G|-7-7-7-7-7-7-7-7h9-9-9-9-9-9-9-9----------------------------------------| "7-9-9".
B|-5-5-5-5-5-5-5-5h7-7-7-7-7-7-7-7----------------------------------------|  
E|------------------------------------------------------------------------|  

Second Solo's Rythm:


        Cm                     Gm
E|----------(3)----------------------------------------------------------|
A|----------(3)----------------------------------------------------------|   In "Cm" chord, you can do
D|--5-5-5-5--(5)---------------------------------------------------------|   some Arpeggios, like the 
G|--5-5-5-5----(5)-5~-5-5-5-5-5-5-5--------------------------------------|   MDG guitarrist does. The  
B|--3-3-3-3--------5~-5-5-5-5-5-5-5--------------------------------------|   arpeggio is in (0)(0)(5).  
E|-----------------3~-3-3-3-3-3-3-3--------------------------------------|   You can do it in Gm too.
                                                                             
                                                                                 
E|------------------------------------------------------------------------|
A|------------------------------------------------------------------------| You can play some arpeggios  
D|-7-7-7-7-7-7-7-7h9-9-9-9-9-9-9-9----------------------------------------| here too, especially in the
G|-7-7-7-7-7-7-7-7h9-9-9-9-9-9-9-9----------------------------------------| "7-9-9".
B|-5-5-5-5-5-5-5-5h7-7-7-7-7-7-7-7----------------------------------------|  
E|------------------------------------------------------------------------| 

End:

        Cm                     Gm
E|----------(3)----------------------------------------------------------|
A|----------(3)----------------------------------------------------------|  
D|--5-5-5-5--(5)---------------------------------------------------------|   
G|--5-5-5-5----(5)-5~-5-5-5-5-5-5-5--------------------------------------|   
B|--3-3-3-3--------5~-5-5-5-5-5-5-5--------------------------------------|     
E|-----------------3~-3-3-3-3-3-3-3--------------------------------------|   
                                                                             

I hope this help you!
Good Luck!

~NícolasH.

Добавлено: 27.06.2016
Другие материалы по этой песне:
  • Аккорды и текст

Страница создана 27.06.2016
http://primanota.ru/my-dead-girlfriend/cattle-mutilation-strange-ufo-chords.htm
Привет, Гость.
Предлагаем пройти революционный курс по гитаре.
Подарок от PrimaNota.Ru, забирай!