PrimaNota.ru - самый крупный в мире бесплатный архив песенных текстов, аккордов, табулатур и нот


My Darkest Days - Move Your Body - текст песни, таба, видео

Регистрация Запомнить меня
Войти через:  Facebook Google Twitter Vk Yandex Mail.ru

My Darkest Days - Move Your Body - текст песни, таба, видео

Печатать
Просмотров: 597
Уроки эстрадного вокала в Санкт-Петербурге
----------------------------------------------------------------------------
                    Move Your Body - My Darkest Days
----------------------------------------------------------------------------
Tabbed by: Zach101
Tuning: Drop D   (OR LOWER)


Not exactly sure the tuning. At the very least it's in Dropped D. (Maybe lower) 
I just remembered learning this song a long time ago and now that the albums out I 
thought I'd post at least the intro.


Intro
e|---------------------------------|
B|---------------------------------|
G|---------------------------------|     x2
D|3336-6-3-3---65--3336-6-3-3---65-|
A|3336-6-3-3-63----3336-6-3-3-63--6|
D|3336-6-3-3-------3336-6-3-3------|

OR

e|---------------------------------|
B|---------------------------------|
G|---------------------------------|     x2
D|0003-3-0-0---32--0003-3-0-0---32-|
A|0003-3-0-0-30----0003-3-0-0-30--3|
D|0003-3-0-0-------0003-3-0-0------|


(I personally think the second one sounds better)
Добавлено: 03.05.2012
Другие материалы по этой песне:
  • Аккорды и текст

Страница создана 03.05.2012
http://primanota.ru/my-darkest-days/move-your-body-chords.htm
Привет, Гость.
Предлагаем пройти революционный курс по гитаре.
Подарок от PrimaNota.Ru, забирай!