PrimaNota.ru - самый крупный в мире бесплатный архив песенных текстов, аккордов, табулатур и нот


My Chemical Romance - Zero Percent - аккорды и текст, таба, бас-таба, видео

Регистрация Запомнить меня
Войти через:  Facebook Google Twitter Vk Yandex Mail.ru

My Chemical Romance - Zero Percent - аккорды и текст, таба, бас-таба, видео

Печатать
Просмотров: 459
Уроки эстрадного вокала в Санкт-Петербурге
Zero Percent
My Chemical Romance
Guitar 1: Frank Iero (rythm)
Guitar 2: Ray Toro (lead)
Guitar 3: Ray Toro overdubbed (lead)
 
Intro
Guitar 1 + 2
e|----------------------------------|
B|----------------------------------|
G|----------------------------------|
D|-33333333666666662222222222222222-|
A|-33333333666666662222222222222222-|
E|-11111111444444440000000000000000-| x2

Verse 1
Guitar 1 + 2
e|---------------------------------|
B|---------------------------------|
G|---------------------------------|
D|-33333333666666662222222222222222|
A|-33333333666666662222222222222222|
E|-11111111444444440000000000000000| x2
  
e|-----------------------------------------------------------------|
B|-----------------------------------------------------------------|
G|-----------------------------------------------------------------|
D|-33333333666666662222222222222222333333336666666622222222222222--|
A|-33333333666666662222222222222222333333336666666622222222222222--|
E|-11111111444444440000000000000000111111114444444400000000000000--|

Chorus
Guitar 1
e|-----------------------------------------|
B|-----------------------------------------|
G|----------5--------6----------------8----|
D|-6--------5 x16----6 x16----6-------8 x8-|
A|-6 x16----3--------4--------6 x8----6----|
E|-4--------------------------4------------| x2

Guitar 2
e|---------------------------------------------------------------|
B|-----------13--------14--------13-------14-1313---111111111111-|
G|-13--------X x16----X x16----X x5----X- X X ---X X X X X X ----|
D|-X x16----10--------11--------10-------11-1010---8 8 8 8 8 8 --|
A|-11------------------------------------------------------------|
E|---------------------------------------------------------------|

 ---------------------------------------------------------------|
 -----------13--------18--------13-------14-1313---111111111111-|
 -----------X x16----X x16----X x5----X- X X ---X X X X X X ----|
 -13--------10--------15--------10-------11-1010---8 8 8 8 8 8 -|
 -X x16---------------------------------------------------------|
 -11------------------------------------------------------------|

Chorus to verse 2
Guitar 1
e|----------|
B|----------|
G|----------|
D|-33333333-|
A|-33333333-|
E|-11111111-|
 
Guitar 2
e|------16---|
B|-----18-18-|
G|-----------|
D|-----------|
A|-----------|
E|-----------|

Verse 2
Guitar 1
Same as verse 1
Guitar 2 (play at 1:17)
e|(-----------------------------------)--------|
B|(----------11-------9-------111211X-)-9-X-10-|
G|(-10-------X x8----X x7----X X X X--)-X-X-X--|
D|(-X x8----8--------6-------8 9 8 X--)-6-X-8--|
A|(-8---------------------------------)--------|
E|(-----------------------------------)--------|

e|  _ _  ---------|
B| /     -9111213-|
G| | TO |-XX X X--|
D| _ _/  -68 9 10-|
A|       ---------|
E|       ---------|

Chorus

Bridge
Guitar 1
e|------------------------------------------------------------|
B|------------------------------------------------------------|
G|-6--------8--------10-----8-------6--------8-------9----10/-|
D|-6 x16----8 x16----10 x28 8 x4----6 x16----8 x8----9 x8-10/-|
A|-4--------6--------8------6-------4--------6-------7----8/--|
E|------------------------------------------------------------|

Guitar 2
e|------------------------------------------------------------------------|
B|14--------16--------18--------16X-18--------16X-14--------16------17----|
G|X x16----X x16----X x13----X-X-X x13----X X-X x16----X x8----X-----| x8
D|11--------13--------15--------13X-15--------13X-11--------13------14----|
A|------------------------------------------------------------------------|
E|------------------------------------------------------------------------|

 -----|
 -18/-|
 -X/ -|
 -15/-|
 -----|
 -----|

Guitar 3
e|--16--------16--------16--------16-----------------16--------16--------16---|
B|-18-18-----18-18-----18-18-----18-18--------------18-18-----18-18-----18-18-|
G|------------------------------------15b17r15-13~----------------------------|
B|----------------------------------------------------------------------------|
A|----------------------------------------------------------------------------|
E|----------------------------------------------------------------------------|

 ------16-------|
 -----18-18-18/-|
 ---------------|
 ---------------|
 ---------------|
 ---------------|

Gap (2:06 to 2:12)
Chorus

Ending
Guitar 1
e|------------------------------------------|
B|------------------------------------------|
G|------------------------------------------|
D|-33--33--33--3362~--33--33--33--3362~--33-|
A|-33--33--33--3362~--33--33--33--3362~--33-|
E|-11--11--11--1140~--11--11--11--1140~--11-|

Guitar 2
e|-----------------------------------------    --------|
B|-----------------------------------------    --------|
G|-15b17--15b17--15b17--15b17-15-13-15-13~- x2 -10-10/-|
D|-----------------------------------------    --------|
A|-----------------------------------------    --------|
E|-----------------------------------------    --------|
Добавлено: 08.09.2015
Другие материалы по этой песне:
  • Аккорды и текст

Страница создана 18.03.2012
http://primanota.ru/my-chemical-romance/zero-percent-chords.htm
Привет, Гость.
Предлагаем пройти революционный курс по гитаре.
Подарок от PrimaNota.Ru, забирай!