PrimaNota.ru - самый крупный в мире бесплатный архив песенных текстов, аккордов, табулатур и нот


My Chemical Romance - Tomorrow's Money - текст песни, таба, бас-таба, видео

Регистрация Запомнить меня
Войти через:  Facebook Google Twitter Vk Yandex Mail.ru

My Chemical Romance - Tomorrow's Money - текст песни, таба, бас-таба, видео

Печатать
Просмотров: 255
-------------------------------------------------------------------------------
    Tomorrow's Money - My Chemical Romance
-------------------------------------------------------------------------------
Tabbed by: xMCR.for.Lifex
E-mail: theternalfire@gmail.com
Tuning: Half-a-step down from STANDARD

*THERE WERE ZERO TABS FOR THIS SONG so I decided this would be my first tab! :)

(The whole song is relatively fast)
1 Gap (-): Two notes back-to-back
2 Gaps (--): Hold note slightly
*The above two will help with the strumming pattern, especially on the verse. 
h Hammer-on
p Pull-off
b Bend note
r release bend
x Mute String
. Palm mute
~ Vibrato
( )Optional/Ghost note
///\\\ Pick scrape


INTRO:

Guitar 1

eb|-----------------------|
Bb|-----------------------|
Gb|-----------------------| 
Db|-----------------------|  x4
Ab|----------2-3-2--------|
Eb|--2-2-2-5-------2-5-2~-|

Guitar 2

eb|--1-1-1-1-1-1-1-1-1h3h4-1-3b4-1-|
Bb|--------------------------------|   
Gb|--------------------------------| This part comes in at the  
Db|--------------------------------| last repeat.  
Ab|--------------------------------|
Eb|--------------------------------|

VERSE 1:

Guitar 1 and 2

eb|--------------------------------|
Bb|--------------------------------|
Gb|--------------------------------|
Db|--4--4-4-4-4-4-4--4-4-4---------|   x7
Ab|--4--4-4-4-4-4-4--4-4-4-2h3p2p0-|
Eb|--2--2-2-2-2-2-2--2-2-2---------|

INTO CHORUS:

Guitar 1

eb|---------------------------------|
Bb|---------------------------------|
Gb|---------------------------------|
Db|--4-4-4-4-4-2-4--7-7-7-7-6-6-6-6-|
Ab|--4-4-4-4-4-2-4--7-7-7-7-7-7-7-7-|
Eb|--2-2-2-2-2-0-2--5-5-5-5-4-4-4-4-|

Guitar 2

eb|---------------------------------|
Bb|---------------------------------|
Gb|------------------9-9-9-9--------|
Db|--4-4-4-4-4-4-4-4-9-9-9-9-9-9-9-9|
Ab|--4-4-4-4-4-4-4-4-7-7-7-7-9-9-9-9|
Eb|--2-2-2-2-2-2-2-2---------7-7-7-7|


CHORUS:

Guitar 1 and 2

eb|-------------------------------------------------------------------|
Bb|-------------------------------------------------------------------|
Gb|-----------------------------------7-7-7-7-7-7-7-7-9-9-9-9-9-9-9-9-|
Db|--4--4-4-4-4-4-4-4-7-7-7-7-7-7-7-7-7-7-7-7-7-7-7-7-9-9-9-9-9-9-9-9-| x2
Ab|--4--4-4-4-4-4-4-4-7-7-7-7-7-7-7-7-5-5-5-5-5-5-5-5-7-7-7-7-7-7-7-7-|
Eb|--2--2-2-2-2-2-2-2-5-5-5-5-5-5-5-5---------------------------------|


                                                eb|-------------------|
                                                Bb|-------------------|
                                                Gb|---9-9-9-9-11-9----| On second repeat, guitar 2 
                                                Db|-------------------| plays this at the end
                                                Ab|---7-7-7-7--9-7----|
                                                Eb|-------------------|
Guitar 1

eb|--------------------------------------------------|
Bb|--------------------------------------------------|
Gb|--------------------------7--7--7-7--9--9--9--9-9-|
Db|-4--4--4-4--7--7--7--7-7--7--7--7-7--9--9--9--9-9-|
Ab|-4--4--4-4--7--7--7--7-7--5--5--5-5--7--7--7--7-7-|
Eb|-2--2--2-2--5--5--5--5-5--------------------------|

Guitar 2

eb|---------------------------------------------------|
Bb|---------------------------------------------------| Strumming is exactly like Guitar 1,
Gb|-11-11-1111-11-9--9--9-9-------------9--9--9-8/9---| the elevens just messed up the format! >.>
Db|--------------------------9--9--9-9--------------9-|
Ab|-9--9--9-9--9--7--7--7-7-------------7--7--7-6/7---|
Eb|--------------------------7--7--7-7--------------7-|

Guitar 1 

eb|------------------------------------------------------------------|
Bb|------------------------------------------------------------------|
Gb|----------------------------------7-7-7-7-7-7-7-7-9-9-9-9-9-9-9-9-|
Db|--4-4-4-4-4-4-4-4-7-7-7-7-7-7-7-7-7-7-7-7-7-7-7-7-9-9-9-9-9-9-9-9-| 
Ab|--4-4-4-4-4-4-4-4-7-7-7-7-7-7-7-7-5-5-5-5-5-5-5-5-7-7-7-7-7-7-7-7-|
Eb|--2-2-2-2-2-2-2-2-5-5-5-5-5-5-5-5---------------------------------|

Guitar 2

eb|----------------------------------------------------------------------------------------------|
Bb|----------------------------------------------------------------------------------------------|
Gb|-11-11-11-16-16-11-11-14-14-14-14-14-14-14-14-14-14-14-14-14-14-14-14-14-14-14-14-14-14-14-14-|
Db|----------------------------------------------------------------------------------------------|
Ab|-9--9--9--14-14--9-9--12-12-12-12-12-12-12-12-12-12-12-12-12-12-12-12-12-12-12-12-12-12-12-12-|
Eb|----------------------------------------------------------------------------------------------|

                         ^Play this 24 times

Out of Chorus:

Guitar 1 and 2

eb|-----------------------------------------------------------|
Bb|-----------------------------------------------------------|
Gb|---------------------------------------------Pick scrape---|
Db|------------------------------------------///////\\\\\\\\\-|
Ab|------------------------------------------///////\\\\\\\\\-|
Eb|-2~---------------------------------------///////\\\\\\\\\-|

Bass Line

eb|---------------------------------------------------------=-|
Bb|-----------------------------------------------------------|
Gb|-----------------------------------------------------------|
Db|-----------------------------------------------------------|
Ab|----------------------2h3p2p0--------------------- 2h3p2p0-|
Eb|-2--2-5-2--2-5-2--2-5---------2--2-5-2--2-5-2--2-5---------|
   .  . . .  . . .  . .          .  . . .  . . .  . .         .

VERSE 2: 

Guitar 1 and 2


eb|--------------------------------|
Bb|--------------------------------|
Gb|--------------------------------|
Db|--4--4-4-4-4-4-4--4-4-4---------|   x4
Ab|--4--4-4-4-4-4-4--4-4-4-2h3p2p0-|
Eb|--2--2-2-2-2-2-2--2-2-2---------|


Guitar 2

eb|---------------------------|-------------------------------------|
Bb|---------------------------|------------------------------10-12~-|
Gb|--11-11-11-9-11-11-9-11-9~-|-11-11-11-9-11-11-9-11-9~-9-11-------| x2 
Db|---------------------------|-------------------------------------|
Ab|---------------------------|-------------------------------------|
Eb|---------------------------|-------------------------------------|
                


                            eb|--------------------------------------------|
                            Bb|------------------10-10-10-12---------------|
                            Gb|-11-11-11-9-11-9~-------------11-11-9-10-11-| AFTER FIRST REPEAT,
                            Db|--------------------------------------------| END ON THIS. 
                            Ab|--------------------------------------------| CHORUS IS AFTER. 
                            Eb|--------------------------------------------|

Guitar 1

eb|--------------------------------|
Bb|--------------------------------|
Gb|--------------------------------|
Db|--4--4-4-4-4-4-4--4-4-4---------|   x3
Ab|--4--4-4-4-4-4-4--4-4-4-2h3p2p0-|
Eb|--2--2-2-2-2-2-2--2-2-2---------|

eb|------------------------------------|
Bb|------------------------------------|
Gb|------------------------------------| THIS PLAYS DURING THE SECOND 
Db|--4-4-4-4-4-4-4-4-4-7-7-7-7-6-6-6-6-| ENDING OF GUITAR TWO.  
Ab|--4-4-4-4-4-4-4-4-4-7-7-7-7-7-7-7-7-|
Eb|--2-2-2-2-2-2-2-2-2-5-5-5-5-4-4-4-4-|

REPEAT CHORUS 
REPEAT OUT OF CHORUS, without pickscrape

BRIDGE:

Guitar 2

eb|------------------------------------------------------------------------------------|
Bb|------------------------------------------------------------------------------------|
Gb|---------------------------------------10-10-10-10-10-10-10-11-11-11-11-11-11-11-11-|
Db|--11-11-11-11-11-11-11-9-9-9-9-9-9-9-9--.-.--.--.--.--.--.--.--.--.--.--.--.--.--.--| x2
Ab|--.--.--.--.--.--.--.--.-.-.-.-.-.-.-.----------------------------------------------|
Eb|------------------------------------------------------------------------------------|

THE PALM MUTING AT THESE PARTS ARE A LITTLE HARD TO PLAY, 
JUST TRY TO MAKE IT SOUND SMOOTH (NOT PITCHY)

eb|-------------------------------------------------------------------------------------------|
Bb|-14-14-14-14-14-14-14-12-12-12-12-12-12-12-12----------------------------------------------|
Gb|-.--.--.--.--.--.--.--.--.--.--.--.--.--.--.--10-10-10-10-10-10-10-11-11-11-11-11-11-11-11-|
Db|-----------------------------------------------.--.--.--.--.--.--.--.--.--.--.--.--.--.--.-| x2
Ab|-------------------------------------------------------------------------------------------|
Eb|-------------------------------------------------------------------------------------------|

BREAKDOWN: 

Guitar 1

eb|--------------------------------------------------------------------------|
Bb|--------------------------------------------------------------------------|
Gb|--------------------------------------------------------------------------|
Db|--4---------------------------------------------4-------------------------|
Ab|--4---------------------------------------------4-------------------------|
Eb|--2-------------------------------------------2-2-------------------------|

Guitar 2

eb|--------------------------------------------------------------------------------------------|
Bb|--------------------------------------------------------------------------------------------|
Gb|--11~--11-10-11~--11-10-11~--11-10-11-11-10-10~------------------------------------10-10-10-|
Db|------------------------------------------------11~--11-10-11~--11-10-11~--11-10-11---------|
Ab|--------------------------------------------------------------------------------------------|
Eb|--------------------------------------------------------------------------------------------|

Guitar 1

eb|---------------------------------------------------------------------------------|
Bb|---------------------------------------------------------------------------------|
Gb|---------------------------------------------------------------------------------|
Db|---4-------------------------------------------4----------4-----4-4-4-4-4-4-4-4--|
Ab|---4-------------------------------------------4----------4-----4-4-4-4-4-4-4-4--|
Eb|-2-2----------------------------------------22-2-------22-2---2-2-2-2-2-2-2-2-2--|
                                               ..         ..  
  
Guitar 2
eb|---------------------------------------------------------------------------------|
Bb|---------------------------------------------------------------------------------|
Gb|---11~--11-10-11~--11-10-11~--11-10-11-11-10~------------------------------------|
Db|-----------------------------------------------11~--11-10-11-10~-----------------|
Ab|-----------------------------------------------------------------///////\\\\\\\\-|
Eb|-----------------------------------------------------------------///////\\\\\\\\-|
                                                                     Pickscrape
SOLO:

Guitar 1

eb|-----------------------------------------------------------------------------------------------|
Bb|-----------------------------------------------------------------------------------------------|
Gb|-----------------------------------------------------------------------------------------------|
Db|4-4-4-4-4-4-4-4-4-4-4-4-4-4-4-4-2-2-2-2-2-2-2-2-2-2-2-2-2-2-2-2-9-9-9-9-9-9-9-9-9-9-9-9-9-9-9-9
Ab|4-4-4-4-4-4-4-4-4-4-4-4-4-4-4-4-2-2-2-2-2-2-2-2-2-2-2-2-2-2-2-2-7-7-7-7-7-7-7-7-7-7-7-7-7-7-7-7
Eb|2-2-2-2-2-2-2-2-2-2-2-2-2-2-2-2-0-0-0-0-0-0-0-0-0-0-0-0-0-0-0-0-7-7-7-7-7-7-7-7-7-7-7-7-7-7-7-7|

        
         FIRST TIME ENDING                 SECOND TIME ENDING
eb|-------------------------------|---------------------------------|
Bb|-------------------------------|---------------------------------|
Gb|-------------------------------|-7-7-7-7-7-7-7-7-9-9-9-9-9-9-9-9-|
Db|-4-4-4-4-4-4-4-4-4-4-4-4-4-4-4-|-7-7-7-7-7-7-7-7-9-9-9-9-9-9-9-9-|
Ab|-4-4-4-4-4-4-4-4-4-4-4-4-4-4-4-|-5-5-5-5-5-5-5-5-7-7-7-7-7-7-7-7-|
Eb|-2-2-2-2-2-2-2-2-2-2-2-2-2-2-2-|---------------------------------|

Guitar 2

eb|-------------------------------------------------------------------------------------|
Bb|--------17-----17-----17-------------------------------------------------------------|
Gb|--18-18b21r-18b21r-18b21r--18-18~-16-14-16~-14~--14~-14~-14~-14~-14~-14~-13~-13~-13~-|
Db|-------------------------------------------------------------------------------------|
Ab|-------------------------------------------------------------------------------------|
Eb|-------------------------------------------------------------------------------------|

eb|------------------------------------------------------------------|
Bb|------------------------------------------------------------------|
Gb|-11~-11~-11~-9~-9~-9~---------------------------------------------|
Db|---------------------11-9-11-9------------------------------------|
Ab|-------------------------------12~--12~-12~-11~-11~-9~------9-12~-|
Eb|------------------------------------------------------9h12p9------|

eb|-------------------------------------------------|
Bb|----------------------17--17-17-19-19-17--17-16~-|
Gb|-11-11-14-14-16-16-18----------------------------|
Db|----------------------14--14-14-16-16-14---------|
Ab|-9--9--12-12-14-14-16----------------------------|
Eb|-------------------------------------------------|

eb|---------------------------14h16h17-17p16p14-----------------------|
Bb|-14h16h17-14h16h17-14h16h17-----------------17p16p14---------------|
Gb|----------------------------------------------------17p16p14h16p14-|
Db|-------------------------------------------------------------------|
Ab|-------------------------------------------------------------------|
Eb|-------------------------------------------------------------------|

eb|----------------14-----16-----(17)-----|
Bb|-14h16h17p16p14-17b19r-19b21r-(20b22r)-|
Gb|---------------------------------------|
Db|---------------------------------------|
Ab|---------------------------------------|
Eb|---------------------------------------|

REPEAT CHORUS, except Guitar 2 plays this instead

eb|---------------------------------------------------------------------------------|
Bb|---------------------------------------------------------------------------------|
Gb|-16-16-16-16-16-16-16-16-14-14-14-14-14-14-14-14-8-8-8-8-8-8-8-8-9-9-9-9-9-9-9--9|
Db|---------------------------------------------------------------------------------|
Ab|-14-14-14-14-14-14-14-14-12-12-12-12-12-12-12-12-6-6-6-6-6-6-6-6-7-7-7-7-7-7-7-7-|
Eb|---------------------------------------------------------------------------------|

Both end on:

eb|------------------|
Bb|------------------|
Gb|------------------|
Db|------------------|
Ab|------------------|
Eb|-2~---------------|

Again, this is not a perfect tab by far (it's probably got typos somewhere), but it is the first, 
and I made it to the best of my abilities! 
If you have any suggestions comment below and I will attempt to fix them! :)
Thanks!

Добавлено: 25.04.2015
Другие материалы по этой песне:
  • Аккорды и текст

Страница создана 10.09.2013
http://primanota.ru/my-chemical-romance/tomorrows-money-chords.htm
Привет, Гость.
Предлагаем пройти революционный курс по гитаре.
Подарок от PrimaNota.Ru, забирай!