PrimaNota.ru - самый крупный в мире бесплатный архив песенных текстов, аккордов, табулатур и нот


My Chemical Romance - Sister To Sleep - текст песни, таба, видео

Регистрация Запомнить меня
Войти через:  Facebook Google Twitter Vk Yandex Mail.ru

My Chemical Romance - Sister To Sleep - текст песни, таба, видео

Печатать
Просмотров: 382
Уроки эстрадного вокала в Санкт-Петербурге
This is a song that My Chemical Romance has not released. You can get this song
from www.theimmortalityproject.com, and the lyrics for this song are here:
http://www.songmeanings.net/lyric.php?lid=3530822107858564995. Its a live performance
that was originally supposed to be on the Freddie vs. Jason sound track. I'm sorry if
this tab is wrong. The guitars were a bit distorted in the live performance.

(intro guitar 1 (heavily palm muted)
E----------------------------|
B----------------------------|
G----------------------------|
D---4—3—4—3-444444444444444--|
A--—4—3—4—3-444444444444444--|
E----------------------------|


(intro guitar 2, comes in after guitar 1 gradually bend this note)
E------------------------------------------|
B------------------------------------------|
G----------------------------6666666666666-|
D------------------------------------------|
A------------------------------------------|
E------------------------------------------|

(Verse: guitar 1)
E----------------------------------|
B----------------------------------|
G----------------------------------|
D----------------------------------|
A-44444444444444444444444444444444-|
E----------------------------------|

Verse:
(guitar 2)
E-----------------------------------|
B-----------------------------------|
G-----------------------------------|
D-----------------------------------|
A-7-6-7-9-7-6-7-9—------------7-6-9-|
E-----------------------------------|
  Welcome to this institution, one way to resolution

(guitar 1)
E-------------------------|
B-------------------------|
G-------------------------|
D-------------------------|
A-00----00----00----00----|
E ------------------------|


(guitar 2)
E----------------------|
B----------------------|
G-9/8/9-9/8/9-9/8/9-9--|
D----------------------|
A----------------------|
E----------------------|
I'm put on this medication, rolls down my throat

(guitar 1)
E-----------------------|
B-----------------------|
G-----------------------|
D-----------------------|
A-444444444444444444444-|
E-----------------------|
Cause I cant ever sleep at night the same

(guitar 1)
E-------------------------|
B-------------------------|
G-------------------------|
D-------------------------|
A-00----00----00----00----|
E ------------------------|

(guitar 2)
E----------------------|
B----------------------|
G-9/8/9-9/8/9-9/8/9-9--|
D----------------------|
A----------------------|
E----------------------|
This medication it controls, enjoys most everyday

(guitar 1)
E--------------------------------------|
B--------------------------------------|
G--------------------------------------|
D--------------------------------------|
A-44----44----44----444440000000000000-|
E--------------------------------------|
Well! And! And! Cause I can't sleep into the night but

(guitar 1)
E---------------------------|
B---------------------------|
G---------------------------|
D---------------------------|
A-4444444444444444444440000-|
E---------------------------|
Cause I can close my eyes, I see land

-chorus-
(guitar 1)        (|          repeat once                                       |)
E-----------------|----------------------------------|
B-----------------|----------------------------------|
G-----------------|----------------------------------|
D-----------------|----------------------------------|
A--3—--3—--3—--3--|--444400002222-------------3-2-0--|
E-----------------|--------------4444-0—0—0—0--------|

(guitar 2)
E---------------------------------------------------|
B---------------------------------------------------|
G---------------------------------------------------|
D----------------6—7—6—4—9-9/2-----6—7--6—4—9-9/7---|
A-9/8/9-9/8/9- -------------------------------------|
E---------------------------------------------------|
What did I say?…

(guitar 1)
E-----------------|
B-----------------|
G-----------------|
D-----------------|
A-4—2—0-----44444-|
E-------4---------|
Back to this day, back into this day

Verse

Chorus


(guitar 1)
E----------|
B----------|
G----------|
D----------| x4
A-4-2-0----|
E------4---|
I will take the Ferris wheel…

(guitar 2)
E--------------------------|
B-66—66—66--66—22—22—22—5--|
G--------------------------|
D--------------------------|  x2
A--------------------------|
E--------------------------|

(guitar 1 –comes in on the repeat-)
E-----------------------------------------------|
B-----------------------------------------------|
G-----------------------------------------------|
D-----------------------------------------------|
A-----------------------------------------------|
E-9>>0--9>>0--9>>0--9>>0--8>>0--8>>0--8>>0—8>>0-|
…oh my darling… for the first time…

Bridge:
(guitar 1 heavily palm muted)(this is hard to read, first note is on 5th string then 4th 
so its staggered like this.: 4,6,4,6,4,6 and so on and so forth)
E------------------|
B------------------|
G------------------|
D--6-6-6-6-7-7-7-7-|  x4
A-4-4-4-4—5-5-5-5--|
E------------------|

(guitar 2, comes in on 3rd repeat)
E----------------------------------------------------------|
B----------------------------------------------------------|
G-11>6--4-6-7-6--2-4-1--13/14-10--11--11>6--4-6-7-6--2-4-1-|
D----------------------------------------------------------|
A----------------------------------------------------------|
E----------------------------------------------------------|
Don't let me sleep tonight…


Chorus

Outro:
(Guitar 1)
E--------------|
B--------------|
G--------------|
D--------------| x4
A-4-2-0-4-2-0--|
E------4-----4-|

(guitar 2)
E-----------------|
B-----------------|
G-----------------| x4
D—6-7-7-4-6-7-7-4-|
A-----------------|
E-----------------|
I will go into your bedroom

(both guitars)
E---------------|
B---------------|
G---------------|
D---------------|
A-4444-4444-4444|
E---------------|
   Hell!  Oh!  God!
Добавлено: 04.07.2012
Другие материалы по этой песне:

Страница создана 28.04.2012
http://primanota.ru/my-chemical-romance/sister-to-sleep-chords.htm
Привет, Гость.
Предлагаем пройти революционный курс по гитаре.
Подарок от PrimaNota.Ru, забирай!