PrimaNota.ru - самый крупный в мире бесплатный архив песенных текстов, аккордов, табулатур и нот


My Chemical Romance - Jack The Ripper - аккорды и текст, таба, бас-таба, видео

Регистрация Запомнить меня
Войти через:  Facebook Google Twitter Vk Yandex Mail.ru

My Chemical Romance - Jack The Ripper - аккорды и текст, таба, бас-таба, видео

Печатать
Просмотров: 333
Jack The Ripper
My Chemical Romance
Intro:
e ------------------------------------------------------------------------|
B ------------------------------------------------------------------------|
G ------------------------------------------------------------------------|
D -x-5---2--5--2--5--2---5-5---2--5---2--5--2--5--2--5-5--2--5--2~~-------|
A -x-5---2--5--2--5--2---5-5---2--5---2--5--2--5--2--5-5--2--5--2~~-------|
E ------------------------------------------------------------------------|

      (pick up speed)
e ------------------------------------------------------------------------|
B ------------------------------------------------------------------------|
G ------------------------------------------------------------------------|
D -x-5-5--2--5--2--5--2---5-5---2--5---2--5--2--5--2--5-5--2--5-----------|
A -x-5-5--2--5--2--5--2---5-5---2--5---2--5--2--5--2--5-5--2--5-----------|
E ------------------------------------------------------------------------|

Verse: (repeat 2 times)
e -------------------------------------------------------------------------|
B -------------------------------------------------------------------------|
G -------------------------------------------------------------------------|
D --2--5--2--5--2--5--2--5-------------------------------------------------| x3
A --2--5--2--5--2--5--2--5-------------------------------------------------|
E -------------------------------------------------------------------------|

First Ending:
e ------------------------------------------------------------------------|
B ------------------------------------------------------------------------|
G ------------------------------------------------------------------------|
D --7~~--9-9--7--5-4--2--5--2--5--2---5-5--2--5--2--5--2--5--2--5-5--2--5-|
A --7~~--9-9--7--5-4--2--5--2--5--2---5-5--2--5--2--5--2--5--2--5-5--2--5-|
E ------------------------------------------------------------------------|

Second time, you go:
e ------------------------------------------------------------------------|
B ------------------------------------------------------------------------|
G ------------------------------------------------------------------------|
D --7~~-5/2.--7~~-5/2.--7~~--5/2.---9~~-----------------------------------|
A --7~~-5/2.--7~~-5/2.--7~~--5/2.---9~~-----------------------------------|
E ---------------------------------------(5)-(5)-(5)-(3)-(2)-(0)----------|

e ------------------------------------------------------------------------|
B ------------------------------------------------------------------------|
G ------------------------------------------------------------------------|
D --2--5--2--5--2---5-5---2--5---2--5--2--5--2--5-5--2--5-----------------|
A --2--5--2--5--2---5-5---2--5---2--5--2--5--2--5-5--2--5-----------------|
E ------------------------------------------------------------------------|

Second Verse:
e -------------------------------------------------------------------------|
B -------------------------------------------------------------------------|
G -------------------------------------------------------------------------|
D --2--5--2--5--2--5--2--5-------------------------------------------------| x3
A --2--5--2--5--2--5--2--5-------------------------------------------------|
E -------------------------------------------------------------------------|

e -------------------------------------------------------------------------|
B -------------------------------------------------------------------------|
G -------------------------------------------------------------------------|
D --7~~--x7-7-7-5-4--2--5--2--5--2---5-5--2--5--2--5--2--5--2--5-5--2--5---|
A --7~~--x7-7-7-5-4--2--5--2--5--2---5-5--2--5--2--5--2--5--2--5-5--2--5---|
E -------------------------------------------------------------------------|

e -------------------------------------------------------------------------|
B -------------------------------------------------------------------------|
G -------------------------------------------------------------------------|
D --2--5--2--5--2--5--2--5-------------------------------------------------| x3
A --2--5--2--5--2--5--2--5-------------------------------------------------|
E -------------------------------------------------------------------------|

First Solo:
e --------3b-0------0-----------------------------------------------------|
B --------------3b--------------------------------------------------------|
G --------------------2b--2--0--------------------------------------------|
D --7~~~------------------------2------------2----------------------------|
A --7~~~---------------------------0-h1-h2--------------------------------|
E ----------------------------------------------3b--0~~~------------------|

e ---------------------------------------------------------------------------|
B ---------------------------------------------------------------------------|
G ---------------------------------------------------------------------------|
D ---------------------------------------------------------------------- x12-|
A ---------------------------------------------------------------------------|
E --0-0-h2-0-h3-0-h5-3b------------------------------------------------------|

e -------------------------------------------------------------------------|
B -------------------------------------------------------------------------|
G -------------------------------------------------------------------------|
D -9--9-x-x-x-9-9-9-9-9-9--9-9-x-x-x-x-(last time)9-9-9-9------------------| x3
A -9--9-x-x-x-9-9-9-9-9-9--9-9-x-x-x-x------------9-9-9-9------------------|
E -------------------------------------------------------------------------|

Before Solo:
e -------------------------------------------------------------------------|
B -------------------------------------------------------------------------|
G -------------------------------------------------------------------------|
D -------------------------------------------------------------------------| x2
A -------------------------------------------------------------------------|
E --0-0-h2-0-h3-0-h5-3b----------------------------------------------------|

2nd Solo not done yet, sorry!

After Solo:
e -------------------------------------------------------------------------|
B -------------------------------------------------------------------------|
G -------------------------------------------------------------------------|
D -------------------------------------------------------------------------| x4
A -------------------------------------------------------------------------|
E --0-0-h2-0-h3-0-h5b------------------------------------------------------|

Ending:
e ------------------------------------------------------------------------|
B ------------------------------------------------------------------------|
G ------------------------------------------------------------------------|
D --2.----2.----2.----2.-----2--2--2.---2/xx(5).--------------------------|
A --2.----2.----2.----2.-----2--2--2.---2/xx(5).--------------------------|
E ------------------------------------------------------------------------|
Добавлено: 08.09.2015
Другие материалы по этой песне:
  • Аккорды и текст

Страница создана 29.05.2012
http://primanota.ru/my-chemical-romance/jack-the-ripper-chords.htm
Привет, Гость.
Предлагаем пройти революционный курс по гитаре.
Подарок от PrimaNota.Ru, забирай!