PrimaNota.ru - самый крупный в мире бесплатный архив песенных текстов, аккордов, табулатур и нот


My Chemical Romance - Honey, This Mirror Isn't Big Enough For The Two Of Us - аккорды и текст, таба, бас-таба, видео

Регистрация Запомнить меня
Войти через:  Facebook Google Twitter Vk Yandex Mail.ru

My Chemical Romance - Honey, This Mirror Isn't Big Enough For The Two Of Us - аккорды и текст, таба, бас-таба, видео

Печатать
Просмотров: 526
Honey, This Mirror Isn't Big Enough For The Two Of Us
My Chemical Romance
Intro:
Guitar 1:
(0:00)
e|-----------------|-----------------|-----------------|-----------------|
B|-----------------|-----------------|-----------------|-----------------|
G|-----------------|-----------------|-----------------|-----------------|
D|-----------------|-----------------|-----------------|-----------------|
A|-4-4-4-4-6-6-7-7-|-4-4-4-4-6-6-7-7-|-3-3-3-3-4-4-6-6-|-6-6-6-6-4-4-4-4-|
E|-----------------|-----------------|-----------------|-----------------|

Guitar 2:
(0:09)
e|-----------------|-----------------|-----------------|-----------------|
B|-----------------|-----------------|-----------------|-----------------|
G|-6---------------|-5---------------|-----------------|-----------------|
D|-6---------------|-5---------------|-6---------------|-7---------------|
A|-4---------------|-3---------------|-6---------------|-7---------------|
E|-----------------|-----------------|-4---------------|-5---------------|

(0:18)
e|-----------------|-----------------|-----------------|-----------------|
B|-----------------|-----------------|-----------------|-----------------|
G|-6---------------|-5---------------|-----------------|-----------------|
D|-6---------------|-5---------------|-6---------------|-7---------------|
A|-4---------------|-3---------------|-6---------------|-7---------------|
E|-----------------|-----------------|-4---------------|-5---------------|

(0:27)
e|-----------------|-----------------|-----------------|-----------------|
B|-----------------|-----------------|-----------------|-----------------|
G|-6--------8--9---|-5--------8--9---|----------8--9---|-11--9---8---9---|
D|-----------------|-----------------|-6---------------|-----------------|
A|-4--------6--7---|-3--------6--7---|----------6--7---|-9---7---6---7---|
E|-----------------|-----------------|-4---------------|-----------------|

(0:35)
e|-----------------|-----------------|-----------------|-----------------|
B|-----------------|-----------------|-----------------|-----------------|
G|-6--------8--9---|-5--------8--9---|----------8--9---|-11--9---8---9---|
D|-----------------|-----------------|-6---------------|-----------------|
A|-4--------6--7---|-3--------6--7---|----------6--7---|-9---7---6---7---|
E|-----------------|-----------------|-4---------------|-----------------|

Verse:
(0:44)
e|-----------------|-------------------|-------------------|-------------------|
B|-----------------|-------------------|-------------------|-------------------|
G|-6---------------|-------------------|---6---------------|-------------------|
D|-6---------------|-6-7---------------|-6-6---------------|-6-7---------------|
A|-4-4-4-4-4-4-4-4-|-6-7---------------|-6-4-4-4-4-4-4-4-4-|-6-7---------------|
E|-----------------|-4-5-5-5-5-5-5-5-5-|-4-----------------|-4-5-5-5-5-5-5-5-5-|
PM  .............     .............     .............     .............

 "The amount of pills I'm taking.."

(0:52)
e|-----------------|-----------------|-----------------|-----------------|
B|-----------------|-----------------|-----------------|-----------------|
G|---6-6-6-6-6-6-6-|-4-4-4-4-4-4-4-4-|-2-2-2-2-2-2-2-2-|-2-2-2-2-2-2-2-2-|
D|-6-6-6-6-6-6-6-6-|-4-4-4-4-4-4-4-4-|-2-2-2-2-2-2-2-2-|-2-2-2-2-2-2-2-2-|
A|-6-4-4-4-4-4-4-4-|-2-2-2-2-2-2-2-2-|-0-0-0-0-0-0-0-0-|-0-0-0-0-0-0-0-0-|
E|-4---------------|-----------------|-----------------|-----------------|

 "Well, I find it hard to stay.."

(1:02)
e|-----------------|-------------------|-------------------|-------------------|
B|-----------------|-------------------|-------------------|-------------------|
G|-6---------------|-------------------|---6---------------|-------------------|
D|-6---------------|-6-7---------------|-6-6---------------|-6-7---------------|
A|-4-4-4-4-4-4-4-4-|-6-7---------------|-6-4-4-4-4-4-4-4-4-|-6-7---------------|
E|-----------------|-4-5-5-5-5-5-5-5-5-|-4-----------------|-4-5-5-5-5-5-5-5-5-|
PM  .............     .............     .............     .............

 "Well, I choose the life I've taken.."

(1:11)
e|-----------------|-----------------|-----------------|-----------------|
B|-----------------|-----------------|-----------------|-----------------|
G|---6-6-6-6-6-6-6-|-4-4-4-4-4-4-4-4-|-2-2-2-2-2-2-2-2-|-2-2-2-2-2-2-2-2-|
D|-6-6-6-6-6-6-6-6-|-4-4-4-4-4-4-4-4-|-2-2-2-2-2-2-2-2-|-2-2-2-2-2-2-2-2-|
A|-6-4-4-4-4-4-4-4-|-2-2-2-2-2-2-2-2-|-0-0-0-0-0-0-0-0-|-0-0-0-0-0-0-0-0-|
E|-4---------------|-----------------|-----------------|-----------------|

 "Well, I find it hard to stay.."

Chorus:
(1:20)
e|--------------------------|-------(12)~~~-|-------|
B|-5--5-4-------------------|--(12)~~~------|--5----|
G|--------1-2-----4--4/6~~--|---------------|----6--|
D|--------------------------|---------------|-------|
A|--------------------------|---------------|-------|
E|--------------------------|---HARMONICS---|-------|

 "And you can cry all you want to, I don't care how.."

(1:25)
e|-----------------|-----------------|-----------------|-----------------|
B|-----------------|-----------------|-----------------|-----------------|
G|-----------------|-----------------|-----------------|-----------------|
D|-6-6-6-6-6-6-6-6-|-7-7-7-7-7-7-7-7-|-2-2-2-2-2-2-2-2-|-6-6-6-6-6-6-6-6-|
A|-6-6-6-6-6-6-6-6-|-7-7-7-7-7-7-7-7-|-2-2-2-2-2-2-2-2-|-6-6-6-6-6-6-6-6-|
E|-4-4-4-4-4-4-4-4-|-5-5-5-5-5-5-5-5-|-0-0-0-0-0-0-0-0-|-4-4-4-4-4-4-4-4-|
PM ...............

 "Much. You'll invest yourself in me."

(1:34)
e|----------------|
B|----------------|
G|----------------|
D|-4--2-4-2-4-2-4-|
A|-4--2-4-2-4-2-4-|
E|-2--0-2-0-2-0-2-|

 "..(working out) And.."

(1:36)
e|-----------------|      |-----------------|
B|-----5-5-4-4-----|      |-----4-4-5-5-7-7-|
G|-6-6---------4-4-| x3 then |-6-6-------------|
D|-----------------|      |-----------------|
A|-----------------|      |-----------------|
E|-----------------|      |-----------------|

 "And you can't touch my friends."

(1:40)
e|-----------------|      |-----------------|
B|-----5-5-4-4-----|      |-----4-4-5-5-7-7-|
G|-6-6---------4-4-| x3 then |-6-6-------------|
D|-----------------|      |-----------------|
A|-----------------|      |-----------------|
E|-----------------|      |-----------------|

 "We're not working out.."

Verse:
(1:47)
e|-------------------------|-------------------------|
B|-4-5-4-------------------|-4h5-4--5-5/7--5--7-7/9~-|
G|-------1--4/6-4-2--1h2-1-|-------------------------|
D|-------------------------|-------------------------|
A|-------------------------|-------------------------|
E|-------------------------|-------------------------|

 "But I hope I'm not mistaken.."

(1:55)
e|-----------------|-----------------|-----------------|-----------------|
B|-----------------|-----------------|-----------------|-----------------|
G|---6-6-6-6-6-6-6-|-4-4-4-4-4-4-4-4-|-2-2-2-2-2-2-2-2-|-2-2-2-2-2-2-2-2-|
D|-6-6-6-6-6-6-6-6-|-4-4-4-4-4-4-4-4-|-2-2-2-2-2-2-2-2-|-2-2-2-2-2-2-2-2-|
A|-6-4-4-4-4-4-4-4-|-2-2-2-2-2-2-2-2-|-0-0-0-0-0-0-0-0-|-0-0-0-0-0-0-0-0-|
E|-4---------------|-----------------|-----------------|-----------------|

 "Well, I find it hard to stay.."

(2:05)
e|-----------------|-------------------|-------------------|-------------------|
B|-----------------|-------------------|-------------------|-------------------|
G|-6-6-6-6-6-6-6-6-|-------------------|---6-6-6-6-6-6-6-6-|-------------------|
D|-6-6-6-6-6-6-6-6-|-6-7-7-7-7-7-7-7-7-|-6-6-6-6-6-6-6-6-6-|-6-7-7-7-7-7-7-7-7-|
A|-4-4-4-4-4-4-4-4-|-6-7-7-7-7-7-7-7-7-|-6-4-4-4-4-4-4-4-4-|-6-7-7-7-7-7-7-7-7-|
E|-----------------|-4-5-5-5-5-5-5-5-5-|-4-----------------|-4-5-5-5-5-5-5-5-5-|
PM ...............  .................  .................  .................

 "Well, I choose this life I've taken.."

(2:13)
e|-----------------|-----------------|-----------------|-----------------|
B|-----------------|-----------------|-----------------|-----------------|
G|---6-6-6-6-6-6-6-|-4-4-4-4-4-4-4-4-|-2-2-2-2-2-2-2-2-|-2-2-2-2-2-2-2-2-|
D|-6-6-6-6-6-6-6-6-|-4-4-4-4-4-4-4-4-|-2-2-2-2-2-2-2-2-|-2-2-2-2-2-2-2-2-|
A|-6-4-4-4-4-4-4-4-|-2-2-2-2-2-2-2-2-|-0-0-0-0-0-0-0-0-|-0-0-0-0-0-0-0-0-|
E|-4---------------|-----------------|-----------------|-----------------|

 "Well, I find it hard to stay.."

Chorus:
(2:22)
e|--------------------------|-------(12)~~~-|-------|
B|-5--5-4-------------------|--(12)~~~------|--5----|
G|--------1-2-----4--4/6~~--|---------------|----6--|
D|--------------------------|---------------|-------|
A|--------------------------|---------------|-------|
E|--------------------------|---HARMONICS---|-------|

 "And you can cry all you want to, I don't care how.."

(2:27)
e|-----------------|-----------------|-----------------|-----------------|
B|-----------------|-----------------|-----------------|-----------------|
G|-----------------|-----------------|-----------------|-----------------|
D|-6-6-6-6-6-6-6-6-|-7-7-7-7-7-7-7-7-|-2-2-2-2-2-2-2-2-|-6-6-6-6-6-6-6-6-|
A|-6-6-6-6-6-6-6-6-|-7-7-7-7-7-7-7-7-|-2-2-2-2-2-2-2-2-|-6-6-6-6-6-6-6-6-|
E|-4-4-4-4-4-4-4-4-|-5-5-5-5-5-5-5-5-|-0-0-0-0-0-0-0-0-|-4-4-4-4-4-4-4-4-|
PM ...............

 "Much. You'll invest yourself in me."

(2:36)
e|----------------|
B|----------------|
G|----------------|
D|-4--2-4-2-4-2-4-|
A|-4--2-4-2-4-2-4-|
E|-2--0-2-0-2-0-2-|

 "..(out) And.."

(2:38)
e|-----------------|      |-----------------|
B|-----5-5-4-4-----|      |-----4-4-5-5-7-7-|
G|-6-6---------4-4-| x3 then |-6-6-------------|
D|-----------------|      |-----------------|
A|-----------------|      |-----------------|
E|-----------------|      |-----------------|

 "You can't keep my brother, and you won't fuck my friends."

(2:42)
e|-----------------|      |-----------------|
B|-----5-5-4-4-----|      |-----4-4-5-5-7-7-|
G|-6-6---------4-4-| x3 then |-6-6-------------|
D|-----------------|      |-----------------|
A|-----------------|      |-----------------|
E|-----------------|      |-----------------|

 "We're not working out.."

Ending:
(2:49)
e|-------|
B|-------|
G|-6~~~--|
D|-6~~~--|
A|-4~~~--|
E|-------|

(3:06)
e|-----------------------|
B|-6~~~~-----8~~~~/9~~--|
G|-----------------------|
D|-----------------------|
A|-----------------------|
E|-----------------------|

 "Never again.."

(3:14)
e|---------------------|
B|---------------------|
G|-6~~--6~~--6~~--6~~--|
D|-6~~-----------------|
A|-4~~-----------------|
E|---------------------|

 "You can cry all you want to."

(3:31)
e|-----------------|-----------------|-----------------|-----------------|
B|-----------------|-----------------|-----------------|-----------------|
G|-----------------|-----------------|-----------------|-----------------|
D|-----------------|-----------------|-----------------|-----------------|
A|-4-4-4-4-6-6-7-7-|-3-3-3-3-6-6-7-7-|---------6-6-7-7-|-4-4-4-4-4-4-4-4-|
E|-----------------|-----------------|-4-4-4-4---------|-----------------|

 "Oh baby let me in.."

(3:40)
e|-----------------|-----------------|-----------------|-----------------|
B|-----------------|-----------------|-----------------|-----------------|
G|-----------------|-----------------|-----------------|-----------------|
D|-----------------|-----------------|-----------------|-----------------|
A|-4-4-4-4-6-6-7-7-|-3-3-3-3-6-6-7-7-|---------6-6-7-7-|-4-4-4-4-4-4-4-4-|
E|-----------------|-----------------|-4-4-4-4---------|-----------------|

 "Oh baby let me in.."

(3:47)
e|----|
B|----|
G|-6--|
D|-6--|
A|-4--|
E|----|

 "In."
Добавлено: 04.04.2015
Другие материалы по этой песне:

Страница создана 04.03.2012
http://primanota.ru/my-chemical-romance/honey-this-mirror-isnt-big-enough-for-the-two-of-us-chords.htm
Привет, Гость.
Предлагаем пройти революционный курс по гитаре.
Подарок от PrimaNota.Ru, забирай!