PrimaNota.ru - самый крупный в мире бесплатный архив песенных текстов, аккордов, табулатур и нот


My Chemical Romance - Cancer Live - таба, видео

Регистрация Запомнить меня
Войти через:  Facebook Google Twitter Vk Yandex Mail.ru

My Chemical Romance - Cancer Live - таба, видео

Печатать
Просмотров: 634
I have never seen this song played live, but I have listened to the live version. The 
song is played clean, live.


-||INTRO||-

e|----------------------------------|
B|----------------------------------|
G|9-9-/8-88/111111/9-99-------------|
D|9-99/8-88/111111/9-99-9-9-999999--|
A|7-77/6-66/-9-9-9/7-77-9-9-999999--|
E|----------------------7-7-777777--| x2


-||VERSE||-

e|----------------------------------------------|
B|----------------------------------------------|
G|9-9-999999------------6-6-666666//------------|
D|9-9-999999-7-7-777777-6-6-666666//7-7-777777--|
A|7-7-777777-7-7-777777-4-4-444444//7-7-777777--|
E|-----------9-9-999999-----------//5-5-555555--| x2


-||PRE-CHORUS||-

e|--------------------------------------------------|
B|--------------------------------------------------|
G|--------------4-4-44-5-5-55-6-6-666666-5-5-555555-|
D|4-4-44-2-2-22-4-4-44-5-5-55-6-6-666666-5-5-555555-|
A|4-4-44-2-2-22-2-2-22-3-3-33-4-4-444444-3-3-333333-|
E|2-2-22-0-0-00-------------------------------------|


-||CHORUS||-

e|------------------------------------------------------|
B|------------------------------------------------------|
G|----------------4-4-4-4-4-4-4-4-9-9-999999-9-9-999999-|
D|4-4-4-4-4-4-4-4-4-4-4-4-4-4-4-4-9-9-999999-9-9-999999-|
A|4-4-4-4-4-4-4-4-2-2-2-2-2-2-2-2-7-7-777777-7-7-777777-|
E|2-2-2-2-2-2-2-2---------------------------------------|


-[[REPEAT VERSE]]-
-[[REPEAT PRE-CHORUS]]-


-||BRIDGE||- (I'm not quite 92% sure about this)

e|--------------------------------------------------------------|
B|--------------------------------------------------------------|
G|-6-6-666666-5-5-555555------------4-4-4444-5-5-555-6-6-666666-|
D|-6-6-666666-5-5-555555-4-4-444444-4-4-4444-5-5-555-6-6-666666-|
A|-4-4-444444-3-3-333333-4-4-444444-2-2-2222-3-3-333-4-4-444444-|
E|-----------------------2-2-222222-----------------------------|

e|-------------------------------------------------------------|
B|-------------------------------------------------------------|
G|------------------------------------------4-4-4-4-4-4-4-4----|
D|-11-1111/101010/8-88/6-66/4-4-4-4-4-4-4-4-4-4-4-4-4-4-4-4----|
A|-11-1111/101010/8-88/6-66/4-4-4-4-4-4-4-4-2-2-2-2-2-2-2-2----|
E|-/9--9-9/-8-8-8/6-66/4-44/2-2-2-2-2-2-2-2--------------------|


( Play slower than before)
e|---------------------------|
B|---------------------------|
G|---------------------------|
D|-11-1111/101010/8-88/6-66--|
A|-11-1111/101010/8-88/6-66--|
E|-/9--9-9/-8-8-8/6-66/4-44--|


-||REPEAT CHORUS||-

That's it, enjoy!
Добавлено: 08.06.2013
Другие материалы по этой песне:

Страница создана 08.06.2013
http://primanota.ru/my-chemical-romance/cancer-live-chords.htm
Привет, Гость.
Предлагаем пройти революционный курс по гитаре.
Подарок от PrimaNota.Ru, забирай!