PrimaNota.ru - самый крупный в мире бесплатный архив песенных текстов, аккордов, табулатур и нот


My Brightest Diamond - Inside A Boy - текст песни, таба, видео

Регистрация Запомнить меня
Войти через:  Facebook Google Twitter Vk Yandex Mail.ru

My Brightest Diamond - Inside A Boy - текст песни, таба, видео

Печатать
Просмотров: 114
Авторы музыки: Shara Worden
Авторы текста: Shara Worden
-------------------------------------------------------------------------------
Inside a Boy – My Brightest Diamond
-------------------------------------------------------------------------------
Tabbed by: Gerbos

Tuning: Standard (EADGBe)

Intro/verse
e|---------------------------------------------------------------------------|
B|-6-6-6-6-4-4-4-4-4-2-2-2-2-------------------------------------------------|
G|--5-5-5---5-5-5-5---3-3-3--3-3-3-1-1---------(x8)--------------------------|
D|---------------------------------------------------------------------------|
A|---------------------------------------------------------------------------|
E|---------------------------------------------------------------------------|


Pre-riff (played over the intro part)
e|---------------------------------------------------------------------------|
B|-6-6-6-6-8-8-8-8-----------------------------------------------------------|
G|--5-5-5---------------------(x2)-------------------------------------------|
D|---------------------------------------------------------------------------|
A|---------------------------------------------------------------------------|
E|---------------------------------------------------------------------------|


Main riff
e|---------------------------------------------------------------------------|
B|---------------------------------------------------------------------------|
G|---------------------------------------------------------------------------|
D|-------------------------(x2)----------------------------------------------|
A|-/8--/6--------------------------------------------------------------------|
E|---/8--/4-4/6-6/8-1-4-6----------------------------------------------------|



Interlude
e|----------------------------------------|------|---------------------------|
B|----------------------------------------|------|---------------------------|
G|----------------------------------------|------|---------------------------|
D|----------------------------------------|------|---------------------------|
A|----------------(x3)--------------------|------|----------------------(x2)-|
E|-/6-6-6-6-4------------/6-6-6-6-8-8-9---|------|-1-1-4-4-1--1-1--4-4-------|

e|---------------------------------------------------------------------------|
B|---------------------------------------------------------------------------|
G|---------------------------------------------------------------------------|
D|---------------------------------------------------------------------------|
A|-/8--/6-8-10-11------------------------------------------------------------|
E|---/8-----------1-4-6------------------------------------------------------|


************************************

| /   slide up
| \   slide down
| h   hammer-on
| p   pull-off
| ~   vibrato
| +   harmonic
| x   Mute note
| b   Bend
| pb  Pre-bend
| br  Bend release
| pbr Pre-bend release
| brb Bend release bend

************************************

http://www.mybrightestdiamond.com/
Добавлено: 27.06.2012
Другие материалы по этой песне:
  • Аккорды и текст

Страница создана 27.06.2012
http://primanota.ru/my-brightest-diamond/inside-a-boy-chords.htm
Привет, Гость.
Предлагаем пройти революционный курс по гитаре.
Подарок от PrimaNota.Ru, забирай!