PrimaNota.ru - самый крупный в мире бесплатный архив песенных текстов, аккордов, табулатур и нот


My American Heart - Speak Low If You Speak Love - таба, видео

Регистрация Запомнить меня
Войти через:  Facebook Google Twitter Vk Yandex Mail.ru

My American Heart - Speak Low If You Speak Love - таба, видео

Печатать
Просмотров: 113
-----------------------------------------------------------------------------------
		Speak Low If You Speak Love - My American Heart
					Josh
-----------------------------------------------------------------------------------
Song Name:	Speak Low If You Speak Love
Band:		My American Heart
Tabbed by:	Josh

Tuning: Electric Guitar 1 Drop D (DADGBe)
	Electric Guitar 2 Standard (EADGBe)
	Acoustic Guitar 3 Drop D (DADGBe)


Intro (Electric Guitar 1) (2x)
|--------------------------------|
|--------------------------------|
|-(8x)----(4x)----(4x)----(16x)--|
|--8-------6------11------13-----|
|--8-------6------11------13-----|
|--8-------6------11------13-----|
*Note: The last three strums, on the last chord, are played down and harder than the rest.

(Electric Guitar 2)
|-11-13--------------------------------------------------|
|-------11-14-13b14r13-11--------------------------------|
|-----------------------11-11-11-11p10-10p8--------------|
|-----------------------------------------11h13-11p10-8--|
|--------------------------------------------------------|
|--------------------------------------------------------|
*Note: This is played the second time Guitar 1 plays the intro.

Verse (Electric Guitar 1) (3x)
|--------------------------------|
|--------------------------------|
|-(8x)----(4x)----(4x)----(16x)--|
|--8-------6------11------13-----|
|--8-------6------11------13-----|
|--8-------6------11------13-----|
*Note: The second time this is played the last three strums on the last chord is played
down and harder than the rest.

Pre-Chorus (Electric Guitar 1)
|-----------------------------------------------------------------|
|-----------------------------------------------------------------|
|-(8x)----(4x)----(4x)--------------------------------------------|
|--8-------6------11------13-13-11-13-13-11-13-13-11-13-13-13-11--|
|--8-------6------11------13-13-11-13-13-11-13-13-11-13-13-13-11--|
|--8-------6------11------13-13-11-13-13-11-13-13-11-13-13-13-11--|

Chorus (Electric Guitar 1)
|--------------------------------|
|--------------------------------|
|-(32x)---(16x)----(8x)----(8x)--|
|--8--------6------11------13----|
|--8--------6------11------13----|
|--8--------6------11------13----|


Intro (Electric Guitar 1)
|--------------------------------|
|--------------------------------|
|-(8x)----(4x)----(4x)----(16x)--|
|--8-------6------11------13-----|
|--8-------6------11------13-----|
|--8-------6------11------13-----|
*Note: Again the last three strums, on the last chord, are played harder.


(Electric Guitar 2)
|-11-13--------------------------------------------------|
|-------11-14-13b14-11-----------------------------------|
|-----------------------11-11-11-11p10-10p8--------------|
|-----------------------------------------11h13-11p10-8--|
|--------------------------------------------------------|
|--------------------------------------------------------|
*Note: This time this little solo starts immediately when Guitar 1 plays the intro.

Verse (Electric Guitar 1) (2x)
|--------------------------------|
|--------------------------------|
|-(8x)----(4x)----(4x)----(16x)--|
|--8-------6------11------13-----|
|--8-------6------11------13-----|
|--8-------6------11------13-----|

Pre-Chorus (Electric Guitar 1)
|-------------------------------------------|
|-------------------------------------------|
|-------------------------------------------|
|-8-8----8s6-6----6-1-1----1-4-4--1-4-4--1--|
|-8-8----8s6-6----6-1-1----1-4-4--1-4-4--1--|
|-8-8----8s6-6----6-1-1----1-4-4--1-4-4--1--|

|------------------------------------|
|------------------------------------|
|------------------------------------|
|-8-8----8s6-6----6-1-1----1-4--4-4--|
|-8-8----8s6-6----6-1-1----1-4--4-4--|
|-8-8----8s6-6----6-1-1----1-4--4-4--|

Chorus (Electric Guitar 1) (2x)
|--------------------------------|
|--------------------------------|
|-(32x)---(16x)----(8x)----(8x)--|
|--8--------6------11------13----|
|--8--------6------11------13----|
|--8--------6------11------13----|

Bridge (3x) (Electric Guitar 1)
|--------------------------------------------|
|--------------------------------------------|
|--------------------------------------------|
|-8-8----8-6-6----6-1-1----1-4-4--1-4-4-4-1--|
|-8-8----8-6-6----6-1-1----1-4-4--1-4-4-4-1--|
|-8-8----8-6-6----6-1-1----1-4-4--1-4-4-4-1--|

|----------------------------------------|
|----------------------------------------|
|----------------------------------------|
|-8-8------6-6------1-1------4-4----4-4--|
|-8-8------6-6------1-1------4-4----4-4--|
|-8-8------6-6------1-1------4-4----4-4--|

|--------------------------------|
|--------------------------------|
|------------------(8x)----(8x)--|
|-8-8------6-6------1-------4----|
|-8-8------6-6------1-------4----|
|-8-8------6-6------1-------4----|

(Electric Guitar 2) (5x) (Electric Guitar 2)
|---------------------------------------------------------------|
|---------------------------------------------------------------|
|-8h10p8h10p8h10p8--8-8--8--8-8--8h10p8h10p8h10p8---------------|
|-8~----------------6-6--6--6-6--8~----------------8-8--8--8-8--|
|--------------------------------------------------6-6--6--6-6--|
|---------------------------------------------------------------|
*Note: This is played with a pedal and the last two times the distortion is changed.

Acoustic Chorus (Acoustic Guitar 3)
|--------------------------------|
|--------------------------------|
|-(32x)---(16x)----(8x)----(8x)--|
|--8--------6------11------13----|
|--8--------6------11------13----|
|--8--------6------11------13----|

Chorus
(Electric Guitar 1)
|-----------------------------------------------------------|
|-----------------------------------------------------------|
|-----------------------------------------------------------|
|-8-8--8-8-8s20-20-20-20-8-8--8-8-8s18-18-18-18-6-6--6-6-6--|
|-8-8--8-8-8s20-20-20-20-8-8--8-8-8s18-18-18-18-6-6--6-6-6--|
|-8-8--8-8-8s20-20-20-20-8-8--8-8-8s18-18-18-18-6-6--6-6-6--|

---------------|
---------------|
-(8x)----(8x)--|
-11------13----|
-11------13----|
-11------13----|

|--------------------------------|
|--------------------------------|
|-(32x)---(16x)----(8x)----(8x)--|
|--8--------6------11------13----|
|--8--------6------11------13----|
|--8--------6------11------13----|

Outro (Electric Guitar 1)
|--------------|
|--------------|
|--------------|
|-8--8--8--8/--|
|-8--8--8--8/--|
|-8--8--8--8/--|
*Note: The last chord is slid down the fret board into a exit.

(Electric Guitar 2)
|----------------|
|----------------|
|-8-8--8-8--8-8--|
|-8-8--8-8--8-8--|
|----------------|
|----------------|

Thats the song.
I know there is more lead in the song but for now I just want to get the basic
idea across, seeing as this tab isn't on the internet yet (I've searched).
Enjoy. Email me at josuamichnel@gmail.com
Добавлено: 27.05.2012
Другие материалы по этой песне:
  • Аккорды и текст

Страница создана 27.05.2012
http://primanota.ru/my-american-heart/speak-low-if-you-speak-love-chords.htm
Привет, Гость.
Предлагаем пройти революционный курс по гитаре.
Подарок от PrimaNota.Ru, забирай!