PrimaNota.ru - самый крупный в мире бесплатный архив песенных текстов, аккордов, табулатур и нот


MxPx - Youre The One I Want This Christmas - таба, видео

Регистрация Запомнить меня
Войти через:  Facebook Google Twitter Vk Yandex Mail.ru

MxPx - Youre The One I Want This Christmas - таба, видео

Печатать
Просмотров: 89
-----------------------------------------------------------------
You're The One I Want (This Christmas) - MXPX
-----------------------------------------------------------------
Tabbed by: Bair
Email: bair_morritt@hotmail.com
Tuning: Standard

Intro:
e|---------------------------------------------------------------|
B|---------------------------------------------------------------|
G|---------------------------------------------------------------|
D|--2-2-2-2222-2-2--2-2-2-2222-2-2-------------------------------|
A|--2-2-2-2222-2-2--2-2-2-2222-2-2-------------------------------|
E|--0-0-0-0000-0-0--2-2-2-0000-0-0-------------------------------|

Verse:
e|---------------------------------------------------------------|
B|---------------------------------------------------------------|
G|--------------------6666666666666666--44444444-----------------|
D|--2222222222222222--6666666666666666--44444444--(X2)-----------|
A|--2222222222222222--4444444444444444--22222222-----------------|
E|--0000000000000000---------------------------------------------|

Pre- Chorus:
e|---------------------------------------------------------------|
B|---------------------------------------------------------------|
G|--2222--4444--666666--2222--4444--6666--4444--2222--44---------|
D|--2222--4444--666666--2222--4444--6666--4444--2222--44---------|
A|--0000--2222--444444--0000--2222--4444--2222--0000--22---------|
E|---------------------------------------------------------------|

Chorus:
e|---------------------------------------------------------------|
B|---------------------------------------------------------------|
G|------------66666666----------444444---------------------------|
D|--22222222--66666666--777777--444444---------------------------|
A|--22222222--44444444--777777--222222---------------------------|
E|--00000000------------555555-----------------------------------|

Bridge:
e|---------------------------------------------------------------|
B|---------------------------------------------------------------|
G|-----2--4--------2--44444444-----------------------------------|
D|--6--2--4--2--6--2--44444444-----------------------------------|
A|--6--0--2--2--6--0--22222222-----------------------------------|
E|--4--------0--4------------------------------------------------|
Добавлено: 11.05.2012
Другие материалы по этой песне:
  • Аккорды и текст

Страница создана 11.05.2012
http://primanota.ru/mxpx/youre-the-one-i-want-this-christmas-chords.htm
Привет, Гость.
Предлагаем пройти революционный курс по гитаре.
Подарок от PrimaNota.Ru, забирай!