PrimaNota.ru - самый крупный в мире бесплатный архив песенных текстов, аккордов, табулатур и нот


MxPx - Summer Of 6 - таба, видео

Регистрация Запомнить меня
Войти через:  Facebook Google Twitter Vk Yandex Mail.ru

MxPx - Summer Of 6 - таба, видео

Печатать
Просмотров: 112
SUMMER OF 69' - MxPx


By:surferbd@yahoo.com

x=palm mute

VERSE:
"I got my first real six string..."
e|---------------------------------------------------------------------------|
B|---------------------------------------------------------------------------|
G|---------------------------------------------------------------------------|
D|---1010xxxxx-1010xxxxx-55xxxxx-1010xxxxx-55xxxxx-10-5-10-5-----------------|
A|---1010xxxxx-1010xxxxx-55xxxxx-1010xxxxx-55xxxxx-10-5-10-5-----------------|
E|---8-8-xxxxx-8-8-xxxxx-33xxxxx-8-8-xxxxx-33xxxxx-8--3-8--3-----------------|

"Oh when I look back now..."
e|---------------------------------------------------------------------------|
B|---------------------------------------------------------------------------|
G|---------------------------------------------------------------------------|
D|---7777-5555-10101010-3333-----------------7777-5--777777-555555-----------|
A|---7777-5555-10101010-3333--X2---last-time-7777-5--777777-555555-----------|
E|---5555-3333-8-8-8-8--1111-----------------5555-3--555555-333333-----------|

"Ain't no use in complaining..."
e|---------------------------------------------------------------------------|
B|---------------------------------------------------------------------------|
G|---------------------------------------------------------------------------|
D|---10-5-10-5---------------------------------------------------------------|
A|---10-5-10-5---------------------------------------------------------------|
E|---8--3-8--3---------------------------------------------------------------|

"Standing on your daddy's porch..."
e|---------------------------------------------------------------------------|
B|---------------------------------------------------------------------------|
G|---------------------------------------------------------------------------|
D|---7777-5555-10101010-3333-----------------7777-5--------------------------|
A|---7777-5555-10101010-3333--X2---last-time-7777-5--------------------------|
E|---5555-3333-8-8-8-8--1111-----------------5555-3--------------------------|

"Those were the best days..."
e|---------------------------------------------------------------------------|
B|---------------------------------------------------------------------------|
G|---------------------------------------------------------------------------|
D|---77777777-55555555-1010101010101010-55555555-----------------------------|
A|---77777777-55555555-1010101010101010-55555555-----------------------------|
E|---55555555-33333333-8-8-8-8-8-8-8-8--33333333-----------------------------|

"Man we were killin' time..."
e|---------------------------------------------------------------------------|
B|---------------------------------------------------------------------------|
G|---------------------------------------------------------------------------|
D|---3333-10101010-5555-7777-3333-10101010-55555555--------------------------|
A|---3333-10101010-5555-7777-3333-10101010-55555555--------------------------|
E|---1111-8-8-8-8--3333-5555-1111-8-8-8-8--33333333--------------------------|

BRIDGE:
e|---------------------------------------------------------------------------|
B|---------------------------------------------------------------------------|
G|---------------------------------------------------------------------------|
D|---55555555-1010101010101010-55555555-1010101010101010---------------------|
A|---55555555-1010101010101010-55555555-1010101010101010---------------------|
E|---33333333-8-8-8-8-8-8-8-8--33333333-8-8-8-8-8-8-8-8----------------------|

VERSE:
"And now times are changing..."
e|---------------------------------------------------------------------------|
B|---------------------------------------------------------------------------|
G|---------------------------------------------------------------------------|
D|---55555555-1010101010101010-55555555-1010101010101010---------------------|
A|---55555555-1010101010101010-55555555-1010101010101010---------------------|
E|---33333333-8-8-8-8-8-8-8-8--33333333-8-8-8-8-8-8-8-8----------------------|

"Standing on your daddy's porch..."
e|---------------------------------------------------------------------------|
B|---------------------------------------------------------------------------|
G|---------------------------------------------------------------------------|
D|---7777-5555-10101010-3333-----------------7777-5--------------------------|
A|---7777-5555-10101010-3333--X2---last-time-7777-5--------------------------|
E|---5555-3333-8-8-8-8--1111-----------------5555-3--------------------------|

"Those were the best days..."
Double every strum!
e|---------------------------------------------------------------------------|
B|---------------------------------------------------------------------------|
G|---------------------------------------------------------------------------|
D|---7777-5555-10101010-5555-10101010-5555-10101010-5555---------------------|
A|---7777-5555-10101010-5555-10101010-5555-10101010-5555---------------------|
E|---5555-3333-8-8-8-8--3333-8-8-8-8--3333-8-8-8-8--3333---------------------|

THE END
Добавлено: 17.05.2012
Другие материалы по этой песне:
  • Аккорды и текст

Страница создана 17.05.2012
http://primanota.ru/mxpx/summer-of-6-chords.htm
Привет, Гость.
Предлагаем пройти революционный курс по гитаре.
Подарок от PrimaNota.Ru, забирай!