PrimaNota.ru - самый крупный в мире бесплатный архив песенных текстов, аккордов, табулатур и нот


MxPx - Misunderstanding - текст песни, таба, видео

Регистрация Запомнить меня
Войти через:  Facebook Google Twitter Vk Yandex Mail.ru

MxPx - Misunderstanding - текст песни, таба, видео

Печатать
Просмотров: 133
-------------------------------------------------------------------------------
                             Misunderstanding - MxPx
-------------------------------------------------------------------------------
Tabbed by: spikeymikey
Email: easypeasyjapanesey@hotmail.com

Tuning: Standard

tabbed myself by ear,  think its pretty accurate, one of my favourite Mxpx
songs! 
please rate :)

(Bass Intro) 

Guitar Intro x1
e|-------------------------------|
B|-------------------------------|
G|-12-11-7-7-----------12-11-----|
D|-x--x--x-x------x2---x--x------|
A|-10-9--5-5-----------10-9------|
E|-------------------------------|

Verse (been told once, been told twice..) (x2)
e|---------------------------------------------------------------------------|
B|---------------------------------------------------------------------------|
G|-777777--9--11--9999999--11--121212--11--121212--11--77--12--11--77--12--11|
D|-xxxxxx--x--x---xxxxxxx--x---x-x-x---x---x-x-x---x---xx--x---x---xx--x---x-|
A|-555555--7--9---7777777--9---101010--9---101010--9---55--10--9---55--10--9-|
E|---------------------------------------------------------------------------|

Chorus (he can't ignore..) 
e|-------------------------------------------------------------------|
B|-------------------------------------------------------------------|
G|-----------77777777----------------------------------7-------------|
D|-55555555--77777777--99999999--77777777-----x2--555--5--7777----x3-|
A|-55555555--55555555--99999999--77777777---------555--5--7777-------|
E|-33333333------------77777777--55555555---------333-----5555-------|

Bridge 1

e|-----------------------------------------------------------------|
B|-----------------------------------------------------------------|
G|-7~--------------------7-77777777--9/11-------7-77777777--12/11--|
D|-7~--x4--(PICK SLIDE)--7-77777777--x/x-----x3-7-77777777--x-/x---|
A|-5~--------------------5-55555555--7/9--------5-55555555--10/9---|
E|-----------------------------------------------------------------|                         
                           xxxxx xx               xxxxx xx
Then:
VERSE 
CHORUS

Bridge 2

e|----------------------------------------------|
B|----------------------------------------------|
G|-7~--------------------7-77777777--9/11-------|
D|-7~--x4--(PICK SLIDE)--7-77777777--x/x----x7--|
A|-5~--------------------5-55555555--7/9--------|
E|----------------------------------------------|                         
                           xxxxx xx               

e|-------------------------------------------------------|
B|-------------------------------------------------------|
G|-7-77777777--12/11--7----------12/11--77777777--12/11--|
D|-7-77777777--x-/x---7-(Pause)--x-/x---77777777--x-/x---|
A|-5-55555555--10/9---5----------10/9---55555555--10/9---|
E|-------------------------------------------------------|
     xxxxxxxx                           xxxxxxxx

Then:
VERSE 

Outro

e|---------------------------|
B|---------------------------|
G|-12/11--55------12/11--5~--|
D|-x-/x---xx--x2--x-/x---5~--|
A|-10/9---77------10/9---7~--|
E|---------------------------|

enjoy :)

| /  slide up
| \  slide down
| h  hammer-on
| p  pull-off
| ~  vibrato
| +  harmonic
| x  Mute note
===============================================================================
Добавлено: 11.05.2012
Другие материалы по этой песне:
  • Аккорды и текст

Страница создана 09.05.2012
http://primanota.ru/mxpx/misunderstanding-chords.htm
Привет, Гость.
Предлагаем пройти революционный курс по гитаре.
Подарок от PrimaNota.Ru, забирай!