PrimaNota.ru - самый крупный в мире бесплатный архив песенных текстов, аккордов, табулатур и нот


MxPx - Dolores - текст песни, таба, видео

Регистрация Запомнить меня
Войти через:  Facebook Google Twitter Vk Yandex Mail.ru

MxPx - Dolores - текст песни, таба, видео

Печатать
Просмотров: 117
This is a easy song but you do have to move your hand really fast.
Have Fun!

Intro(You can figure out how many times)
e---------------------------------------------------------------------------|
B---------------------------------------------------------------------------|
G--7------------------------------------------------------------------------|
D--7------------------------------------------------------------------------|
A--5------------------------------------------------------------------------|
E---------------------------------------------------------------------------|
(Then when drumbs and bass comes in)
e---------------------------------------------------------------------------|
B---------------------------------------------------------------------------|
G-6-7-7-7-7-7-7-7-7--6-7-7-7-7-7-7-7-7--6-7-7-7--6-7-7-7--6-7-6-7-6-7-6-7-6-|
D-6-7-7-7-7-7-7-7-7--6-7-7-7-7-7-7-7-7--6-7-7-7--6-7-7-7--6-7-6-7-6-7-6-7-6-|
A-4-5-5-5-5-5-5-5-5--4-5-5-5-5-5-5-5-5--4-5-5-5--4-5-5-5--4-5-4-5-4-5-4-5-4-|
E---------------------------------------------------------------------------|
Verse
My Girl Hates the IRA..............
e----------------------------------------------------------------------------|
B----------------------------------------------------------------------------|
G-7--------------------------------------------------------------------------|
D-7(x10)-7------5------7-----------------------------------------------------|(x2)
A-5------7(x10)-5(x10)-7(x10)------------------------------------------------|
E--------5------3------5-----------------------------------------------------|
Nothing in this world could be better
Then falling in love with her
She writes me the most beattiful of songs
e----------------------------------------------------------------------------|
B----------------------------------------------------------------------------|
G--------7-------------------------------------------------------------------|
D-5------7(x10)-7------9-----------------------------------------------------|(x2)
A-5(x10)-5------7(x10)-9(x10)------------------------------------------------|
E-3-------------5------7-----------------------------------------------------|
123 go, go, go, go
e----------------------------------------------------------------------------|
B----------------------------------------------------------------------------|
G-77-------------------------------------------------------------------------|
D-77-77-55-77----------------------------------------------------------------|(x4)
A-55-77-55-77----------------------------------------------------------------|
E----55-33-55----------------------------------------------------------------|
(This is the verse the second time. You only strum these once until the pick slide)
e---------------------------------------------------------------------------|
B---------------------------------------------------------------------------|
G-7------------------------------7------------------------------------------|
D-7--7--5--7---------------------7(X10)-7------5------7---------------------|
A-5--7--5--7------(PICKSLIDE!!!)-5------7(X10)-5(X10)-7(X10)----------------|
E----5--3--5----------------------------5------3------2---------------------|
Nothing in this world could be better
Then falling in love with her
She writes me the most beattiful of songs
e----------------------------------------------------------------------------|
B----------------------------------------------------------------------------|
G--------7-------------------------------------------------------------------|
D-5------7(x10)-7------9-----------------------------------------------------|(x2)
A-5(x10)-5------7(x10)-9(x10)------------------------------------------------|
E-3-------------5------7-----------------------------------------------------|
(Then [just one strum ])
e----------------------------------------------------------------------------|
B----------------------------------------------------------------------------|
G-7--------------------------------------------------------------------------|
D-7~--3--4-------------------------------------------------------------------|(x4)
A-5---3--4-------------------------------------------------------------------|
E-----1--2-------------------------------------------------------------------|
Outro
e---------------------------------------------------------------------------|
B---------------------------------------------------------------------------|
G-7777777-6-7777777-6-7777777-6-7777777-------------------------------------|
D-7777777-6-7777777-6-7777777-6-7777777-------------------------------------|
A-5555555-4-5555555-4-5555555-6-5555555-------------------------------------|
E---------------------------------------------------------------------------|

e---------------------------------------------------------------------------|
B---------------------------------------------------------------------------|
G-6-7-7-7-7-7-7-7-7--6-7-7-7-7-7-7-7-7--6-7-7-7--6-7-7-7--6-7-6-7-6-7-6-7-6-|
D-6-7-7-7-7-7-7-7-7--6-7-7-7-7-7-7-7-7--6-7-7-7--6-7-7-7--6-7-6-7-6-7-6-7-6-|
A-4-5-5-5-5-5-5-5-5--4-5-5-5-5-5-5-5-5--4-5-5-5--4-5-5-5--4-5-4-5-4-5-4-5-4-|
E---------------------------------------------------------------------------|

And Thats it!!!!!!!!!!
I love playing this song it is sooooo much fun and I hope u have fun too!!!!!
Добавлено: 06.06.2012
Другие материалы по этой песне:
  • Аккорды и текст

Страница создана 06.06.2012
http://primanota.ru/mxpx/dolores-chords.htm
Привет, Гость.
Предлагаем пройти революционный курс по гитаре.
Подарок от PrimaNota.Ru, забирай!