PrimaNota.ru - самый крупный в мире бесплатный архив песенных текстов, аккордов, табулатур и нот


MxPx - Christmas Night Of The Living Dead - бас-таба, видео

Регистрация Запомнить меня
Войти через:  Facebook Google Twitter Vk Yandex Mail.ru

MxPx - Christmas Night Of The Living Dead - бас-таба, видео

Печатать
Просмотров: 28
This Should be 100% correct. Nobody does Christmas better than these guys.

Intro:
G -------------------- }    |-----------------|
D -------------------- }x4  |-----------------|
A -------66------66--- }    |--------33--5566-|
E ---33----66-33---66- }    |-11-11-1---------|

Verse:
G {--------------------}
D {--------------------}x4
A {-------66------66---}
E {---33----66-33---66-}


Pre-Chorus:
G ------------------------------------|
D ------------------------------------|
A 55555555-66666666-55555555-55331100-|
E ------------------------------------|

Chorus:
G -----------------------------}
D -----------------------------}x2
A ------------------1---3-1-31-}
E -33333333-11111111--1--------}

Verse x1
Interlude:
G -------------------------------------------------------------------------|
D -------------------------------------------------------------------------|
A -55555555-66666666-55555555-66666666-55555555-66666666-55555555-55331100-|
E -------------------------------------------------------------------------|

Chorus:
G ------------------------------}
D ------------------------------}x2
A ------------------1---3-1-31--}
E -33333333-11111111--1-------3\}

Bass Solo: *The notes between the Asterisks (*) are Sixteenth notes*
G {--------------------     -----------------------------------------------|
D {--------------------x10  ---------------------------*33333333333333333--|
A {-------66------66---     -----66-------66-------------------------------|
E {---33----66-33---66-     -33----66-33----66-33333333--------------------|

G {-----------------------------------------------------------------------|
D {-----------------------------------------------------------------------|
A {-66666666--------66666666---------55555555555555555555555555555555-----|
E {---------33333333--------33333333--------------------------------------|

Chorus & Ending:
G --------------------------------------------------------------------------|
D --------------------------------------------------------------------------|
A ------------------1---3-1-31-------------------1---3-1-31--1----3-3-1-31--|
E -33333333-11111111--1---------33333333-11111111--1-----------1----------3-|

*END*
Добавлено: 26.09.2015
Другие материалы по этой песне:
  • Аккорды и текст

Страница создана 26.09.2015
http://primanota.ru/mxpx/christmas-night-of-living-dead-chords.htm
Привет, Гость.
Предлагаем пройти революционный курс по гитаре.
Подарок от PrimaNota.Ru, забирай!