PrimaNota.ru - самый крупный в мире бесплатный архив песенных текстов, аккордов, табулатур и нот


MxPx - Chick Magnet Critter Mix - таба, видео

Регистрация Запомнить меня
Войти через:  Facebook Google Twitter Vk Yandex Mail.ru

MxPx - Chick Magnet Critter Mix - таба, видео

Печатать
Просмотров: 71
		   Chick Magnet (critter Mix)
MxPx
Move to Bremerton (Maxi Single)
Tooth and Nail records
MxPxcoote2@aol.com
Tabbed by my guitar tutor: John
The lyrics to the part are listed below the tab.
*=hit the chord
e1-------------------------------------------------------------------------------------------
b1-------------------------------------------------------------------------------------------
g2-------------------------------------------------------------------------------------------
d3-------------------------------------------------------------------------------------------
a3-------------------------------------------------------------------------------------------
E1------------------------------------------------------------------------------------------


(strum this everyonce in a while not consently)
* (before it begins)*(right beforethe words) 
Well hes a chick magnet if ya know what i mean* 
The way the girlies just go to him well ya shoulda seen*
The guy yea hes got style 
And its plain to see*
Smooth shoes and cool tattos 
hair pomped as tight as can be
Yea


e-----------------------------------------------------------------------------------------------
b-----------------------------------------------------------------------------------------------
g-----------------------------------------------------------------------------------------------
d----------------33-33-33-55------------------------------------------------------------
a00-00-11-00-----11-00-11-33------------------------------------------------------------
e11-11-11-11--------------------------------------------------------------------------------


e-----------------------------------------------------------------------------------------------
b7-x-7-x-7-x-7-x------3-x-3-x-3-x-3-x-3-x-3------5---------------------------------------
g7-x-7-x-7-x-7-x------3-x-3-x-3-x-3-x-3-x-3------5--------------------------------------
d7-x-7-x-7-x-7-x------3-x-3-x-3-x-3-x-3-x-3------5--------------------------------------
a7-x-7-x-7-x-7-x------3-x-3-x-3-x-3-x-3-x-3------5--------------------------------------
e5-x-5-x-5-x-5-x------1-x-1-x-1-x-1-x-1-x-1------3---------------------------------------


He aint got a girlfriend
No one to sing this song to 
Hes gonna settle down 
If he meets that special girl soon


e-----------------------------------------------------------------------------------------------
b-----------------------------------------------------------------------------------------------
g-----------------------------------------------------------------------------------------------
d----------------33-33-33-55------------------------------------------------------------
a00-00-11-00-----11-00-11-33------------------------------------------------------------
e11-11-11-11--------------------------------------------------------------------------------


He knows just what do do when it comes to the girls*
He writes them poetry 
and he picks them flowers*
He knows just what to say when it comes to the ladies*
Knows how to make a girl smile how to drive a girl crazy


e-----------------------------------------------------------------------------------------------
b-----------------------------------------------------------------------------------------------
g-----------------------------------------------------------------------------------------------
d----------------33-33-33-55------------------------------------------------------------
a00-00-11-00-----11-00-11-33------------------------------------------------------------
e11-11-11-11--------------------------------------------------------------------------------

e-----------------------------------------------------------------------------------------------
b7-x-7-x-7-x-7-x------3-x-3-x-3-x-3-x-3-x-3------5---------------------------------------
g7-x-7-x-7-x-7-x------3-x-3-x-3-x-3-x-3-x-3------5--------------------------------------
d7-x-7-x-7-x-7-x------3-x-3-x-3-x-3-x-3-x-3------5--------------------------------------
a7-x-7-x-7-x-7-x------3-x-3-x-3-x-3-x-3-x-3------5--------------------------------------
e5-x-5-x-5-x-5-x------1-x-1-x-1-x-1-x-1-x-1------3---------------------------------------


He aint got a girlfriend
No one to sing this song to 
Hes gonna settle down 
If he meets that special girl soon




ba do do dop ba do dum de da  do dop bop bop bay do de do
ba do do dop ba do dum de da  do dop bop bop bay do de do*
ba do e do dop  ba da ba da da da  bop bop be dot
Yuri told me it was sing to pee your pants
Dont mess with us
H*ll yeah 


e-----------------------------------------------------------------------------------------------
b-----------------------------------------------------------------------------------------------
g-----------------------------------------------------------------------------------------------
d----------------33-33-33-55------------------------------------------------------------
a00-00-11-00-----11-00-11-33------------------------------------------------------------
e11-11-11-11--------------------------------------------------------------------------------


Then go crazy Playing this:
e-----------------------------------------------------------------------------------------------
b-----------------------------------------------------------------------------------------------
g-----------------------------------------------------------------------------------------------
d----------------33-33-33-55------------------------------------------------------------
a00-00-11-00-----11-00-11-33------------------------------------------------------------
e11-11-11-11--------------------------------------------------------------------------------
Thats it have fun if you have any cootees tabs that arent avalible could ya
plese send em to MxPxcoote2@aol.com thanx a bunch


Mike     
Добавлено: 04.06.2013
Другие материалы по этой песне:
  • Аккорды и текст

Страница создана 04.06.2013
http://primanota.ru/mxpx/chick-magnet-critter-mix-chords.htm
Привет, Гость.
Предлагаем пройти революционный курс по гитаре.
Подарок от PrimaNota.Ru, забирай!