PrimaNota.ru - самый крупный в мире бесплатный архив песенных текстов, аккордов, табулатур и нот


MxPx - Breathe Deep - текст песни, таба, видео

Регистрация Запомнить меня
Войти через:  Facebook Google Twitter Vk Yandex Mail.ru

MxPx - Breathe Deep - текст песни, таба, видео

Печатать
Просмотров: 120
Artist: MxPX
Song: Breathe Deep

comment and rate it, please

Intro:

Guitar 1

e|-----------------------------------------------------------------------------|
B|-----------------------------------------------------------------------------|
G|--10--10-10-9-5--10-9-5---------3--10-9-5--10-9-5--------10--9-10--12---10/--|
D|---x---x--x-x-x---x-x-x--2x-----x---x-x-x---x-x-x---2x----x--x--x--x-----x/--|
A|---8---8--8-7-3---8-7-3---------1---8-7-3---8-7-3---------8--7--8--10----8/--|
E|-----------------------------------------------------------------------------|


Guitar 2

e|------------------------------------------|
B|------------------------------------------|
G|-------------------3~----3~---------------|
D|---3~-----3~-------3~----3~---------------|
A|---3~-----3~-------1~----1~---------------|
E|---1~-----1~------------------------------|

Verse:

e|--------------------------------------------------------------------------6-5----6-5----|
B|------------------------------6-5----6-5--------------------------------------6------6--|
G|----------------------------------5------5----3--33333333333333333333-------------------|
D|--3--33333333333333333333---------------------3--33333333333333333333-------------------|
A|--3--33333333333333333333---------------------1--11111111111111111111-------------------|
E|--1--11111111111111111111---------------------------------------------------------------|
 |PM   ********************                        ********************
 |
 |
e|----------------------------------------------------------------------------------------|
B|------------------------------6-5----6-5------------------------------------------------|
G|--7--77777777777777777777---------7------7----3--33333333333333333333333333333333-------|
D|--7--77777777777777777777---------------------3--33333333333333333333333333333333-------|
A|--5--55555555555555555555---------------------1--11111111111111111111111111111111-------|
E|----------------------------------------------------------------------------------------|
  PM   ********************                        ********************

Pre-Chorus:

e|------------------------------------------------------|
B|------------------------------------------------------|
G|--2~------3~------2~-----5--55555555555555555555------|
D|--2~------3~------2~-----5--55555555555555555555------|
A|--0~------1~------0~-----3--33333333333333333333------|
E|------------------------------------------------------|
  PM                          ***********

Chorus:

e|---------------------------------------|
B|---------------------------------------|
G|---------5555555-7--5--333333333-------|
D|33333333-5555555-7--5--333333333----2x-|
A|33333333-3333333-5--3--111111111-------|
E|11111111-------------------------------|
 |
 |
e|---------------------------------------|
B|---------------------------------------|
G|---------5555555-7~--5~--3~~-----------|
D|33333333-5555555-7~--5~--3~~-----------|
A|33333333-3333333-5~--3~--1~~-----------|
E|11111111-------------------------------|

Verse:

e|--------------------------------------------------------------------------6-5----6-5----|
B|------------------------------6-5----6-5--------------------------------------6------6--|
G|----------------------------------5------5----3--33333333333333333333-------------------|
D|--3--33333333333333333333---------------------3--33333333333333333333-------------------|
A|--3--33333333333333333333---------------------1--11111111111111111111-------------------|
E|--1--11111111111111111111---------------------------------------------------------------|
 |PM   ********************                        ********************
 |
 |
e|----------------------------------------------------------------------------------------|
B|------------------------------6-5----6-5------------------------------------------------|
G|--7--77777777777777777777---------7------7----3--33333333333333333333333333333333-------|
D|--7--77777777777777777777---------------------3--33333333333333333333333333333333-------|
A|--5--55555555555555555555---------------------1--11111111111111111111111111111111-------|
E|----------------------------------------------------------------------------------------|
  PM   ********************                        ********************

Pre-Chorus:

e|------------------------------------------------------|
B|------------------------------------------------------|
G|--2~------3~------2~-----5--55555555555555555555------|
D|--2~------3~------2~-----5--55555555555555555555------|
A|--0~------1~------0~-----3--33333333333333333333------|
E|------------------------------------------------------|
  PM                          ***********

Chorus:

e|---------------------------------------|
B|---------------------------------------|
G|---------5555555-7--5--333333333-------|
D|33333333-5555555-7--5--333333333----2x-|
A|33333333-3333333-5--3--111111111-------|
E|11111111-------------------------------|
 |
 |
e|---------------------------------------|
B|---------------------------------------|
G|---------5555555-7~--5~--3~~-----------|
D|33333333-5555555-7~--5~--3~~-----------|
A|33333333-3333333-5~--3~--1~~-----------|
E|11111111-------------------------------|


Bridge Part 1:

e|--------------------------------------------------------------------------------|
B|--------------------------------------------------------------------------------|
G|-5555555555555555--3333333333333333--5555555555555555--3333-5555-7777--12-12-12-|
D|-5555555555555555--3333333333333333--5555555555555555--xxxx-xxxx-xxxx---x--x--x-|
A|-3333333333333333--1111111111111111--3333333333333333--1111-3333-5555--10-10-10-|
E|--------------------------------------------------------------------------------|

Bridge Part 2:

Guitar 1

e|----------------------------------------------------|
B|----------------------------------------------------|
G|--10--10-10-9-5--10-9-5-------3--10-9-5---10--9-10--|
D|---x---x--x-x-x---x-x-x-------x---x-x-x----x--x--x--|
A|---8---8--8-7-3---8-7-3-------1---8-7-3----8--7--8--|
E|----------------------------------------------------|

Guitar 2:

e|-----------------------------------------------------|
B|-----------------------------------------------------|
G|------------------------------3~~----------5~~-------|
D|---3~~------------------------3~~----------5~~-------|
A|---3~~------------------------1~~----------3~~-------|
E|---1~~-----------------------------------------------|

Last Chorus:

e|---------------------------------------|
B|---------------------------------------|
G|---------5555555-7--5--333333333-------|
D|33333333-5555555-7--5--333333333----2x-|
A|33333333-3333333-5--3--111111111-------|
E|11111111-------------------------------|
 |
 |
e|---------------------------------------|
B|---------------------------------------|
G|---------5555555-7~--5~--3~~-----------|
D|33333333-5555555-7~--5~--3~~-----------|
A|33333333-3333333-5~--3~--1~~-----------|
E|11111111-------------------------------|

End:

e|--------------------|
B|--------------------|
G|--7~~--5~~--3~~-----|
D|--7~~--5~~--3~~-----|
A|--5~~--3~~--1~~-----|
E|--------------------|

enjoy ;D
Добавлено: 30.08.2013
Другие материалы по этой песне:
  • Аккорды и текст

Страница создана 16.04.2012
http://primanota.ru/mxpx/breathe-deep-chords.htm
Привет, Гость.
Предлагаем пройти революционный курс по гитаре.
Подарок от PrimaNota.Ru, забирай!