PrimaNota.ru - самый крупный в мире бесплатный архив песенных текстов, аккордов, табулатур и нот


MxPx - Biting The Bullet - текст песни, бас-таба, видео

Регистрация Запомнить меня
Войти через:  Facebook Google Twitter Vk Yandex Mail.ru

MxPx - Biting The Bullet - текст песни, бас-таба, видео

Печатать
Просмотров: 88
Band: Mxpx
Album: Secret Weapon
Song: Biting The Bullet (is bad for business)

~ = let ring

Please rate

Intro (0:05)

G|-------------------------------------------------------------------|
D|-----------------------------------------------------------------7-| 
A|------55------55------7755----77------55------55------7755----777--|
E|-5------55------52--------------55------55------52-----------------|

Verse (0:20)

G|----------------------------------|
D|----------------------------------| 
A|---------55555555--------55555555-|
E|-55555555--------55555555---------|

G|----------------------------------|
D|----------------------------------| 
A|---------55555555--------55555555-|
E|-77777777--------77777777---------|

G|----------------------------------|
D|----------------------------------| 
A|---------55555555--------55555555-|
E|-55555555--------55555555---------|

G|----------------------------------|
D|----------------------------------| 
A|--------455555555--------55555555-|
E|-7777757---------77777777---------|

Chorus (0:48)

G|----------------------------------|
D|----------------------------------| 
A|-----------------5-5-5-5----------|
E|-5-5-5-5-0-0-0-0---------2~--0~---|

G|----------------------------------|
D|----------------------------------| 
A|----------------------------------|
E|-5-5-5-5-0-0-0-0-5-5-5-5-2~--0~---|


Intro (1:02)

Pre verse (1:10)

G|------------------|
D|------------------| 
A|------------------|
E|-5555555555555555-|

Verse (1:13)
Chorus (1:41)

Post chorus (1:55)

G|----------------------------------|
D|----------------------------------| 
A|-5-5-5-5----------5-5-5-5-5-5-5---|
E|---------2---0--------------------|
  
Bridge (2:03)

G|------------------------------------------------------------------|
D|------------------------------------------------------------------| 
A|---------------------------------55555555555555557777777755557777-|
E|-22222222222222220000000000000000---------------------------------|

G|--------------------------------------------------------------------------|
D|--------------------------------------------------------------------------| 
A|---------5--55555--------55-55555--------7--77-7-------4-5--55-555555555--|
E|-5--55555--------5--55555--------5--55-5---------7--77--------------------|

Final chorus (2:38)

G|----------------------------------|
D|-7~-------------------------------| 
A|----------------------------------|
E|-------------------------22220000-|

G|----------------------------------|
D|----------------------------------| 
A|-----------------5-5-5-5----------|
E|-5-5-5-5-0-0-0-0---------2~--0~---|

G|----------------------------------|
D|----------------------------------| 
A|-----------------5-5-5-5----------|
E|-5-5-5-5-0-0-0-0---------2~--0~---|

G|----------------------------------|
D|----------------------------------| 
A|----------------------------------|
E|-5-5-5-5-0-0-0-0-5-5-5-5-2~--0~---|

G|--------------------------|
D|--------------------------| 
A|-5-5-5-5------------------|
E|---------2~--0~--2~--0~---|

G|--------------------------|
D|--------------------------| 
A|-5-5-5-5------------------|
E|---------2~--0~--5~-------|
Добавлено: 30.11.2013
Другие материалы по этой песне:
  • Аккорды и текст

Страница создана 29.04.2012
http://primanota.ru/mxpx/biting-the-bullet-chords.htm
Привет, Гость.
Предлагаем пройти революционный курс по гитаре.
Подарок от PrimaNota.Ru, забирай!