PrimaNota.ru - самый крупный в мире бесплатный архив песенных текстов, аккордов, табулатур и нот


MxPx - Biased Bigotry - текст песни, таба, видео

Регистрация Запомнить меня
Войти через:  Facebook Google Twitter Vk Yandex Mail.ru

MxPx - Biased Bigotry - текст песни, таба, видео

Печатать
Просмотров: 98
-----------------------------------------------------------------------
                biased bigotry - Magnified Plaid(MXPX)
-----------------------------------------------------------------------
Tabbed by:NOfxMIke
Email:someone028@excite.com

Tuning:standard
intro:
e|-----------------------------------------|
B|-----------------------------------------|
G|-----------------------------------------|
D|--7--7-7-7--7--7-7-7--7--7-7-7--7--7-7-7-|
A|--7--7-7-7--7--7-7-7--7--7-7-7--7--7-7-7-|
E|--5--5-5-5--5--5-5-5--5--5-5-5--5--5-5-5-|
    ^         ^         ^         ^       
e|-----------------------------------------|
B|-----------------------------------------|
G|------------7-7-7-7---6-6-6-6---9-9-9-9--|
D|--4-4-4-4---7-7-7-7---6-6-6-6---9-9-9-9--|
A|--4-4-4-4---5-5-5-5---4-4-4-4---7-7-7-7--|
E|--2-2-2-2--------------------------------|
    ^         ^         ^         ^
verse 1:
  It's so easy                              
e|-----------------------------------------|
B|-----------------------------------------|
G|-----------------------------------------|
D|--7--7-7-7--7--7-7-7--7--7-7-7--7--7-7-7-|
A|--7--7-7-7--7--7-7-7--7--7-7-7--7--7-7-7-|
E|--5--5-5-5--5--5-5-5--5--5-5-5--5--5-5-5-|

to find the faults              In everyone else
e|---------------------------------------------------|
B|---------------------------------------------------|
G|------------------------------7--7-7-7--7--7-7-7---|
D|-4--4-4-4--4--4-4-4--4--4-4-4-7--7-7-7--7--7-7-7---|
A|-4--4-4-4--4--4-4-4--4--4-4-4-5--5-5-5--5--5-5-5---|
E|-2--2-2-2--2--2-2-2--2--2-2-2----------------------|

    & not look at myself
e|-----------------------------------------|
B|-----------------------------------------|
G|--7--7-7-7--7--7-7-7--7--7-7-7--7--7-7-7-|
D|--7--7-7-7--7--7-7-7--7--7-7-7--7--7-7-7-|
A|--5--5-5-5--5--5-5-5--5--5-5-5--5--5-5-5-|
E|-----------------------------------------|

I'm getting used to
e|-----------------------------------------|
B|-----------------------------------------|
G|-----------------------------------------|
D|--7--7-7-7--7--7-7-7--7--7-7-7--7--7-7-7-|
A|--7--7-7-7--7--7-7-7--7--7-7-7--7--7-7-7-|
E|--5--5-5-5--5--5-5-5--5--5-5-5--5--5-5-5-|

   not having to                Look at the facts 
e|---------------------------------------------------|
B|---------------------------------------------------|
G|------------------------------7--7-7-7--7--7-7-7---|
D|-4--4-4-4--4--4-4-4--4--4-4-4-7--7-7-7--7--7-7-7---|
A|-4--4-4-4--4--4-4-4--4--4-4-4-5--5-5-5--5--5-5-5---|
E|-2--2-2-2--2--2-2-2--2--2-2-2----------------------|

   or where i'm at
e|-----------------------------------------|
B|-----------------------------------------|
G|--7--7-7-7--7--7-7-7--7--7-7-7--7--7-7-7-|
D|--7--7-7-7--7--7-7-7--7--7-7-7--7--7-7-7-|
A|--5--5-5-5--5--5-5-5--5--5-5-5--5--5-5-5-|
E|-----------------------------------------|

 Refrain:

   You don't know me...       so  don't

e|--4--4-4-4-4--4--4--5--5-5-5-5--5-5|
B|--5--5-5-5-5--5--5--7--7-7-7-7--7-7|
G|--6--6-6-6-6--6--6--7--7-7-7-7--7-7|
D|--6--6-6-6-6--6--6--7--7-7-7-7--7-7|
A|--4--4-4-4-4--4--4--5--5-5-5-5--5-5|
E|-----------------------------------|
    judge me
e|-------------------------------|
B|-------------------------------|
G|-------------------------------|
D|-------------------------------|
A|-7--7-7-7-7--7-7-----5-4-----7-|
E|-5--5-5-5-5--5-5---5-----0-5---|repeat
   PM|-------| 

Your biased      bigo-try        can't 
e|--4--4-4-4-4--4--4--5--5-5-5-5--5-5|
B|--5--5-5-5-5--5--5--7--7-7-7-7--7-7|
G|--6--6-6-6-6--6--6--7--7-7-7-7--7-7|
D|--6--6-6-6-6--6--6--7--7-7-7-7--7-7|
A|--4--4-4-4-4--4--4--5--5-5-5-5--5-5|
E|-----------------------------------|
  control me
e|-------------------------------|
B|-------------------------------|
G|-------------------------------|
D|-------------------------------|
A|-7--7-7-7-7--7-7-----5-4-----7-|
E|-5--5-5-5-5--5-5---5-----0-5---|repeat
   PM|-------| 

   God's son my judge 
e|-----------------------------------------|
B|-----------------------------------------|
G|-----------------------------------------|
D|--7--7-7-7--7--7-7-7--7--7-7-7--7--7-7-7-|
A|--7--7-7-7--7--7-7-7--7--7-7-7--7--7-7-7-|
E|--5--5-5-5--5--5-5-5--5--5-5-5--5--5-5-5-|

   only he &                    not you                
e|---------------------------------------------------|
B|---------------------------------------------------|
G|------------------------------7--7-7-7--7--7-7-7---|
D|-4--4-4-4--4--4-4-4--4--4-4-4-7--7-7-7--7--7-7-7---|
A|-4--4-4-4--4--4-4-4--4--4-4-4-5--5-5-5--5--5-5-5---|
E|-2--2-2-2--2--2-2-2--2--2-2-2----------------------|

   who are you
e|-----------------------------------------|
B|-----------------------------------------|
G|--7--7-7-7--7--7-7-7--7--7-7-7--7--7-7-7-|
D|--7--7-7-7--7--7-7-7--7--7-7-7--7--7-7-7-|
A|--5--5-5-5--5--5-5-5--5--5-5-5--5--5-5-5-|
E|-----------------------------------------|

   You see my skin 
e|-----------------------------------------|
B|-----------------------------------------|
G|-----------------------------------------|
D|--7--7-7-7--7--7-7-7--7--7-7-7--7--7-7-7-|
A|--7--7-7-7--7--7-7-7--7--7-7-7--7--7-7-7-|
E|--5--5-5-5--5--5-5-5--5--5-5-5--5--5-5-5-|

       god see's my heart              deep within              
e|---------------------------------------------------|
B|---------------------------------------------------|
G|------------------------------7--7-7-7--7--7-7-7---|
D|-4--4-4-4--4--4-4-4--4--4-4-4-7--7-7-7--7--7-7-7---|
A|-4--4-4-4--4--4-4-4--4--4-4-4-5--5-5-5--5--5-5-5---|
E|-2--2-2-2--2--2-2-2--2--2-2-2----------------------|

                 within
e|-----------------------------------------|
B|-----------------------------------------|
G|--7--7-7-7--7--7-7-7--7--7-7-7--7--7-7-7-|
D|--7--7-7-7--7--7-7-7--7--7-7-7--7--7-7-7-|
A|--5--5-5-5--5--5-5-5--5--5-5-5--5--5-5-5-|
E|-----------------------------------------|

Refrain:

   You don't know me...       so  don't

e|--4--4-4-4-4--4--4--5--5-5-5-5--5-5|
B|--5--5-5-5-5--5--5--7--7-7-7-7--7-7|
G|--6--6-6-6-6--6--6--7--7-7-7-7--7-7|
D|--6--6-6-6-6--6--6--7--7-7-7-7--7-7|
A|--4--4-4-4-4--4--4--5--5-5-5-5--5-5|
E|-----------------------------------|
    judge me
e|-------------------------------|
B|-------------------------------|
G|-------------------------------|
D|-------------------------------|
A|-7--7-7-7-7--7-7-----5-4-----7-|
E|-5--5-5-5-5--5-5---5-----0-5---|repeat
   PM|-------| 

Your biased      bigo-try        can't 
e|--4--4-4-4-4--4--4--5--5-5-5-5--5-5|
B|--5--5-5-5-5--5--5--7--7-7-7-7--7-7|
G|--6--6-6-6-6--6--6--7--7-7-7-7--7-7|
D|--6--6-6-6-6--6--6--7--7-7-7-7--7-7|
A|--4--4-4-4-4--4--4--5--5-5-5-5--5-5|
E|-----------------------------------|
  control me
e|-------------------------------|
B|-------------------------------|
G|-------------------------------|
D|-------------------------------|
A|-7--7-7-7-7--7-7-----5-4-----7-|
E|-5--5-5-5-5--5-5---5-----0-5---|repeat
   PM|-------| 
Bridge:

  The way i see      the way it seems to me
e|-----------------------------------------|
B|-----------------------5-------7---------|
G|--6--------------------6-------7---------|
D|--7--------------------6-------7---------|
A|--7--------------------4-------5---------|
E|--5--------------------------------------|

e|--5-5-5-5-5-5--5-5-5-5-5-5--4-4-4-4-4-4--5-5-5-5-5-5|
B|--5-5-5-5-5-5--5-5-5-5-5-5--5-5-5-5-5-5--7-7-7-7-7-7|
G|--6-6-6-6-6-6--6-6-6-6-6-6--6-6-6-6-6-6--7-7-7-7-7-7|
D|--7-7-7-7-7-7--7-7-7-7-7-7--6-6-6-6-6-6--7-7-7-7-7-7|
A|--7-7-7-7-7-7--7-7-7-7-7-7--4-4-4-4-4-4--5-5-5-5-5-5|
E|--5-5-5-5-5-5--5-5-5-5-5-5--------------------------| 

I won't agree     you can't live my life for me  
e|---------------------------------------------|
B|-----------------------5-----------7---------|
G|--6--------------------6-----------7---------|
D|--7--------------------6-----------7---------|
A|--7--------------------4-----------5---------|
E|--5------------------------------------------|

e|--5-5-5-5-5-5--5-5-5-5-5-5--4-4-4-4-4-4--5-5-5-5-5-5|
B|--5-5-5-5-5-5--5-5-5-5-5-5--5-5-5-5-5-5--7-7-7-7-7-7|
G|--6-6-6-6-6-6--6-6-6-6-6-6--6-6-6-6-6-6--7-7-7-7-7-7|
D|--7-7-7-7-7-7--7-7-7-7-7-7--6-6-6-6-6-6--7-7-7-7-7-7|
A|--7-7-7-7-7-7--7-7-7-7-7-7--4-4-4-4-4-4--5-5-5-5-5-5|
E|--5-5-5-5-5-5--5-5-5-5-5-5--------------------------|
 Interlude:
e|--0-0-0-0-0-0-0-0-0-0-0-0-0-0--0--|
B|--0-0-0-0-0-0-0-0-0-0-0-0-0-0--0--|
G|--6-6-6-4-4-4-7-7-7-6-6-6-4-4--6--|
D|--7-7-7-6-6-6-7-7-7-7-7-7-6-6--6--|
A|----------------------------------|
E|----------------------------------|

e|--0-0-0-0-0-0-0-0-0-0-0-0-0-0--0--|
B|--0-0-0-0-0-0-0-0-0-0-0-0-0-0--0--|
G|--6-6-6-4-4-4-7-7-7-6-6-6-4-4--6--|
D|--7-7-7-6-6-6-7-7-7-7-7-7-6-6--6--|
A|----------------------------------|
E|----------------------------------|

e|----------------------------5-|
B|----------------------------5-|
G|--9--9-9-9-9-9-9----------5---|
D|--9--9-9-9-9-9-9--------------|
A|--7--7-7-7-7-7-7--------5-----|
E|-----------------5-5-5--------|repeat
                   * * *  * * *
then play this:
Outro:
e|----------------------------------------------------------------|
B|----------------------------------------------------------------|
G|------------6--7--7-7-7-7-7-7-7-7-------9--6--7--7-7-7-7-7-7-7-7|
D|--7-7-7-4---6--7--7-7-7-7-7-7-7-7-7-7-7-9--6--7--7-7-7-7-7-7-7-7|
A|--7-7-7-4---4--5--5-5-5-5-5-5-5-5-7-7-7-7--4--5--5-5-5-5-5-5-5-5|
E|--5-5-5-2-------------------------5-5-5-------------------------|

e|-------------------------------------------------|
B|-------------------------------------------------|
G|------------6-7--------9--9-9-9-9-9-9-9-9-9-9-9-9|
D|--7-7-7-4---6-7--------9--9-9-9-9-9-9-9-9-9-9-9-9|
A|--7-7-7-4---4-5--------7--7-7-7-7-7-7-7-7-7-7-7-7|
E|--5-5-5-2----------------------------------------|

e|----------------------------|
B|----------------------------|
G|7--7-7-7-7-7-7-7-7-7-7-7-7-2|
D|7--7-7-7-7-7-7-7-7-7-7-7-7-2|
A|5--5-5-5-5-5-5-5-5-5-5-5-5-0|
E|----------------------------|good song

| /  slide up
| \  slide down
| h  hammer-on
| p  pull-off
| ~  vibrato
| *  harmonic
| x  Mute note
Добавлено: 30.09.2013
Другие материалы по этой песне:
  • Аккорды и текст

Страница создана 13.06.2012
http://primanota.ru/mxpx/biased-bigotry-chords.htm
Привет, Гость.
Предлагаем пройти революционный курс по гитаре.
Подарок от PrimaNota.Ru, забирай!