PrimaNota.ru - самый крупный в мире бесплатный архив песенных текстов, аккордов, табулатур и нот


Muzika Iz Serije - Grlom U Jagode - таба, видео

Регистрация Запомнить меня
Войти через:  Facebook Google Twitter Vk Yandex Mail.ru

Muzika Iz Serije - Grlom U Jagode - таба, видео

Печатать
Просмотров: 126
-------------------------------------------------------------------------------
                             Grlom u jagode - Muzika iz serije
-------------------------------------------------------------------------------
Tabbed by: Petkovski
Email: chill.bt@live.com

Tuning: Standard

For better sound the intro and parts are played on one string

Intro I(Guitar)
e|-----------------------------------------------------------------------------------|
B|-----------------------------------------------------------------------------------|
G|-5r--7-5-7-5-4r--5-4-5-4-3r--5-3-5-3-2r--1r--3-1-3-1-0r-5-7/9-10-9-2r--2-7-5-4-7-5-|
D|-----------------------------------------------------------------------------------|
A|-----------------------------------------------------------------------------------|
E|-----------------------------------------------------------------------------------|

Intro II (Piano) has the same notes but its played on the first string (there are some 
improvisations in the end)
Played 2 times and than the solo comes in

Solo (Guitar, slight distortion):
e|-----------------------------------------------|
B|-----------------------------------------------|
G|-----------------------------------------------|
D|-5-5-6-8---5-6-8-6-5-8-----------5-6-5---------|
A|-----------------------6-6-8-6-8-------8-6-6-5-|
E|-----------------------------------------------|

This is played two times with a small change in the end of the second time:

e|-----------------------------------------------|
B|-----------------------------------------------|
G|-----------------------------------------------|
D|-5-5-6-8---5-6-8-6-5-8-----------5-6-5---------|
A|-----------------------6-6-8-6-8-------8-6-5-2-|
E|-----------------------------------------------|

The solo is played with some small piano fills.

Then a small electric piano sequence comes in -

The song ends just like the second part of the intro.

And that would be it!
Please correct me somewhere if im wrong.
Добавлено: 26.03.2012
Другие материалы по этой песне:
  • Аккорды и текст

Страница создана 26.03.2012
http://primanota.ru/muzika-iz-serije/grlom-u-jagode-chords.htm
Привет, Гость.
Предлагаем пройти революционный курс по гитаре.
Подарок от PrimaNota.Ru, забирай!