PrimaNota.ru - самый крупный в мире бесплатный архив песенных текстов, аккордов, табулатур и нот


Mutiilation - My Travels To Sadness Hate And Depression - таба, видео

Регистрация Запомнить меня
Войти через:  Facebook Google Twitter Vk Yandex Mail.ru

Mutiilation - My Travels To Sadness Hate And Depression - таба, видео

Печатать
Просмотров: 101
Уроки эстрадного вокала в Санкт-Петербурге

G: Mütiilation - My Travels to Sadness, Hate and Depression

Tabbed Monday, May 12 2008


Band  Mütiilation
Album: Remains of a Ruined, Dead, Cursed Soul
Song: My Travels to Sadness, Hate and Depression


Transcribed By: Elathen
Email:         Myfreezingmoon@yahoo.com

Tuning E A D G B E


. - palm mute / - slide up to
 - slide down to ~ - vibrato
h - hammer on p - pull off
, - slight palm mute () - ghost note, sustained note
" " tremolo note <> - Trill

Suffixes for bend
f - full bend h - half bend
ph - pinched harmonic q - quarter bend
t - tap bend * - see comment
^ - Hold bend r - release bend
x – Staccato ~ - vibrato bend

Riff 1
|------------------------------------------------------|
|------------------------------------------------------|
|------------------------------------------------------|
|--4-4-4-4--------2--2-2--2—----3--3-3--3--------------| 
|–-4-4-4-4--------2--2-2--2-----3--3-3--3--------------|
|–-6-6-6-0-—(x2)—-4--0-4--0-----5--0-5--0—-------------|

Riff 1b
|------------------------------------------------------| 
|------------------------------------------------------| 
|------------------------------------------------------| 
|--4-4-4-4---------5-/3--2---2-2--2---3-3--3-3---------|  
|-–4-4-4-4---------6-/4--2---2-4--2---3-3--3-3---------|
|-–6-6-6-0-—(x2)---7-/5--4---0-4--0---5-0--5-0—--------|

Riff 2
| -----------------------------------------------------|
|------------------------------------------------------| 
|------------------------------------------------------| 
|–--------------------------4-------4-------4-4--------|  
|--5-------5-------5-5-(x3)–2--2-2--2--2-2--2-2-(x2)---|
|–-3–-3-3--3--3-3--3-3---------------------------------| 

Riff 2b
|-------------------------------------------------------|
|-------------------------------------------------------| 
|------------------------------6----6—--4---------------| 
|–-2-------2-------2-2-----7---x----x—--x---------------|  
|–-0--0-0--0--0-0--0-0-----x---4----4—–-2---------------|
|--------------------------5----------------------------| 
  
Riff 3 (tremolo picking)
|-------------------------------------------------------|
|----------------------------------------0--------------| 
|----------------------------------------2--------------|
|--0—--2----0—--0--—---------------------2--------------| 
|–-2—–-2—---2---2---5\---4--5—--/4----------------------|
|–-—------—–-—------3\—--2--3—–-/2-(x3)-----------------|

Riff 4
|--------------------------------------------------------|
|---------------------------------------------4"---------|
|---------------------------------------------4"---------|
|--0—--2----0—--0---—5\---4--5---/4----[4"]---2"---------| 
|–-2—–-2—---2---2----5\---4--5—--/4–---[4"]--------------|
|–-0—--0----0—–-0—---3\—--2--3—–-/2—---[2"]------(x2)----|

Riff 4b
|--------------------------------------------------------|
|--------------------------------------------------------| 
|--------------------------------------------------------| 
|–-2----4----2—-2----5----2—--5--5----4"-----------------|  
|--0----2----0--0----5----0—--3--5----4"-----------------|
|–-0----0----0--0----3----0—--3--3----2"-----------------| 

Riff 5
|--------------------------------------------------------|
|--------------------------------------------------------| 
|--------------------------------------------------------| 
|--4---4--4--4--4—--5--5—-5----4—--2----4--4-4--4--------|  
|-—2---2--2--2--2—--2--2--2----2—--2----2--2-2--2--------|
|--------------------------------------------------------|

Riff 5b
|--------------------------------------------------------|
|--------------------------------------------------------|
|--------------------------------------------------------| 
|-----------------2--2-2-2—--0-0--2----1--0-0--2-0-------|  
|–-2-2-2-2--------2--2-2-2--—2-2--2-—--2--2-2--2-2---2---|
|--0—0-0-0-(x2)--------------------------------------2---| 

END.
Добавлено: 23.06.2012
Другие материалы по этой песне:
  • Аккорды и текст

Страница создана 23.06.2012
http://primanota.ru/mutiilation/my-travels-to-sadness-hate-and-depression-chords.htm
Привет, Гость.
Предлагаем пройти революционный курс по гитаре.
Подарок от PrimaNota.Ru, забирай!