PrimaNota.ru - самый крупный в мире бесплатный архив песенных текстов, аккордов, табулатур и нот


Mutabor - Makana - бас-таба, видео

Регистрация Запомнить меня
Войти через:  Facebook Google Twitter Vk Yandex Mail.ru

Mutabor - Makana - бас-таба, видео

Печатать
Просмотров: 58


Band:Mutabor
Song:Makana
Album:Individuum
Tabbed:jaegerheger@web.de

second part of intro    play 3 times
G---------------------------------------------------
D---------------------------------------------------
A-19-19-19-19-19-17-19-17-15-15-15-14-15-15-14-15---
E---------------------------------------------------
    play 1X
G---------------------------------------------------
D-------19-17---------------------------------------
A-------------19-20---------------------------------
E-17-17---------------------------------------------

Verse and Chorus is the same
Its a great rhythm someone like this(play 3 times)
G---------------------------------------------------
D---------------------------------------------------
A-7-7-7-5-7-7-5-7-5-3-3-3-2-------2-----------------
E---------------------------3-3-3---3---------------
play 1X
G---------------------------------------------------
D----------7-5--------------------------------------
A--------------7-8-8-7-8-8--------------------------
E-5-5--5-5----------------------------------------------
before chorus
G----------------------------------------------------
D---------------------------------------------------------------------------------------------------------------
A-------------3-3-3-3-3-2--------------------------------
E-3-3-2-3-3-3-------------3-3-----------------------------
Reggae part
G-------------------------------------------------
D-------------------------------------------------
A-----------3-3---------------3-3------7-7-7-7-7----------
E-3-3-3-3-3----3-3-3-0-0-0-0-0---3-3-3---------------------------

G--------------------------------------------------
D-------------------------------------------------
A-3-3---------------------------3 -------------------------
E-----3-3-3-5-5-5-5-5-3-0-3-0-3---------------------------------


Добавлено: 27.09.2013
Другие материалы по этой песне:
  • Аккорды и текст

Страница создана 27.09.2013
http://primanota.ru/mutabor/makana-chords.htm
Привет, Гость.
Предлагаем пройти революционный курс по гитаре.
Подарок от PrimaNota.Ru, забирай!