PrimaNota.ru - самый крупный в мире бесплатный архив песенных текстов, аккордов, табулатур и нот


Mustasch - The Dagger - текст песни, таба, видео

Регистрация Запомнить меня
Войти через:  Facebook Google Twitter Vk Yandex Mail.ru

Mustasch - The Dagger - текст песни, таба, видео

Печатать
Просмотров: 104
song: the dagger
band: mustasch
album: down in black
tabbed by: joel (j_sorensson@hotmail.com)

tuning: down a whole and drop-C

Intro w/ phaser:
d-------------------------------
a-------------------------------
f-------------------------------
c-------------------------------
g-3h5-5--3h5-5--3h5-5--5-3------
c--------------------------5-3--

main riff:
d--------------------------------------------
a--------------------------------------------
f-------------------------------------------- (roughly)
c--------------------------------------------
g-5-3-5-3-5--5-3-5-3-5--5-3-5-3-5--5-3-------
c--------------------------------------6-5-3-

"dagger...":
d-----------------------------------
a-----------------------------------
f-5-7-7-7-10-7--x-5-7-7-7-10-7-6-5--
c-5-7-7-7-10-7--x-5-7-7-7-10-7-6-5--
g-3-5-5-5--8-5--x-3-5-5-5--8-5-4-3--
c-----------------------------------

unison guitars G1:		G2:
d---------------------------	d-------|-------------------------------------
a---------------------------	a-------|---------------13--------------------
f---------------------------	f-14-12-|--------12-14-----14-12--------14-12-
c-----------7-----------3-2-	c-------|-15--15-----------------14--14-------
g-5--5-7-8----8-7-3---3-----	g-------|-------------------------------------
c---------------------------	c--once-|-------------------------------------

richterscale-thing: (might be distorted bass)
d----------------------------------
a----------------------------------
f----------------------------------
c-2--------------------3-2-5-------
g-2----3h5-5p3-5---3-5-----3-------
c-0--0-----------0-----------------

.live. questions? comments? corrections? pics of cheese?
mail me.

_________________________________________________________________
     
Добавлено: 24.08.2013
Другие материалы по этой песне:
  • Аккорды и текст

Страница создана 29.05.2012
http://primanota.ru/mustasch/the-dagger-chords.htm
Привет, Гость.
Предлагаем пройти революционный курс по гитаре.
Подарок от PrimaNota.Ru, забирай!