PrimaNota.ru - самый крупный в мире бесплатный архив песенных текстов, аккордов, табулатур и нот


Mustasch - Teenage Pacifier - текст песни, таба, видео

Регистрация Запомнить меня
Войти через:  Facebook Google Twitter Vk Yandex Mail.ru

Mustasch - Teenage Pacifier - текст песни, таба, видео

Печатать
Просмотров: 99
Уроки эстрадного вокала в Санкт-Петербурге
song: teenage pacifier
band: mustasch
album: down in black
tabbed by: joel (j_sorensson@hotmail.com)

tuning: down a whole and drop-C

verse/intro:
d--------------------
a--------------------
f-5/7---10-----------
c-5/7---10-----------
g-3/5----8-6----8----
c----------6----8----

Heavy ass riff:
d---------------------------------------------------------
a---------------------------------------------------------
f-7-------------5-------------5---------------------------
c-7-------------5-------------5------------------3------2-
g-5-0-1-0-0-0-0-3-0-1-0-0-0-0-3-0-1-0-0-0-0----3------2---
c---0-1-0-0-0-0---0-1-0-0-0-0---0-1-0-0-0-0-3------2------

slow riff:			harmony: (played by two guitars)
d------------------------	---------------------
a------------------------	---------------------
f------------------------	---------------------
c------------------------	---------------------
g-5~~--------------------	-5~~-3~~-2~~-0-3-5---
c-----6~~-5~~-0-3-5-5-b--	-----6~~-5~~-0-3-5---

outro noodle: (two guitars -call & response)
d-----------------
a------7\5------7-
f------7\5------7-
c-5/7--7\5--5/7-7-
g-3/5-------3/5-5-
c-----------------

.easy. questions? comments? corrections? pics of cheese?
mail me.

_________________________________________________________________
     
Добавлено: 07.11.2013
Другие материалы по этой песне:
  • Аккорды и текст

Страница создана 18.04.2012
http://primanota.ru/mustasch/teenage-pacifier-chords.htm
Привет, Гость.
Предлагаем пройти революционный курс по гитаре.
Подарок от PrimaNota.Ru, забирай!