PrimaNota.ru - самый крупный в мире бесплатный архив песенных текстов, аккордов, табулатур и нот


Mustasch - Ocean Song - Orust - текст песни, таба, видео

Регистрация Запомнить меня
Войти через:  Facebook Google Twitter Vk Yandex Mail.ru

Mustasch - Ocean Song - Orust - текст песни, таба, видео

Печатать
Просмотров: 91
song: ocean song -orust
band: mustasch
album: above all
tabbed by: joel (j_sorensson@hotmail.com)

Tuning: Down a whole step and drop C (But I belive Mustasch tune
all strings down two steps.)
Chords notated by fingering not pitch. (G a D  here is really a C.)

Intro:

C5  D5      C5  D5
Let it out, let it out
       F#5       E5  C5         D5
the suspictions from your dirty mind
C5  D5      C5  D5
Let it out, let it out
       F#5       E5   C5        D5
the suspictions from your dirty mind
Bb5                              D5
And when you try to close your eyes
Bb5                        G5
All the pictures seem to slide
[N.C]
yo.....

Riff:
d--------------------------
a--------------------------
f--------------------------
c--------------3p2---------
g-3h5-5-5--5-5-----3-3p2h3-
c--------------------------


Verse:
d-------------------------  ---------------------------
a-------------------------  ---------------------------
f-------------------------  ---------------------------
c-5/7-7-7--------3p2------  -5/7-7-7--------3p2-----5--
g-3/5-5-5------------2h3--  -3/5-5-5------------3-3-3--
c-------------------------  ---------------------------


"I've made it in the plains..."-guitar one:
d-------------------------------------
a-------------------------------------
f-7----7----7----7--------------------
c-7----7----7----7----0----3----0--5--
g-5----5----5----5----0----3----0--5--
c---------------------0----3----0--5--

"I've made it in the plains..."-guitar two:
d-------------------------------------
a------------------------------------- (Sounds like a third guitar
f-7-5-7-7--5-7--7---------------------  is in on the last four notes.)
c-------------------------------------
g--------------------5---8~~--5--10~~-
c-------------------------------------

solo begining: (figure out the rest yourself.)
d----------------------------------------------------
a----------------------------------------------------
f----------------------------10--9-------------9-----
c------------10-10h12--10h12-------10-------10---12--
g-8-10-12-13--------------------------12-11----------
c----------------------------------------------------


piano thing: (Um. can't really be played on guitar.)
d-------------3-------------
a-----------4---4-----------
f-------0-5-------5-0------- I think it plays the same thing
c-----1---------------1----- but over a Bb/F. (This being Cm/G)
g---3-------------------3---
c-5-----------------------5-


.tjörn. questions? comments? corrections? pics of cheese?
mail me.

_________________________________________________________________
     
Добавлено: 09.06.2013
Другие материалы по этой песне:
  • Аккорды и текст

Страница создана 20.04.2012
http://primanota.ru/mustasch/ocean-song-orust-chords.htm
Привет, Гость.
Предлагаем пройти революционный курс по гитаре.
Подарок от PrimaNota.Ru, забирай!