PrimaNota.ru - самый крупный в мире бесплатный архив песенных текстов, аккордов, табулатур и нот


Mustasch - Muddy Waters - текст песни, таба, видео

Регистрация Запомнить меня
Войти через:  Facebook Google Twitter Vk Yandex Mail.ru

Mustasch - Muddy Waters - текст песни, таба, видео

Печатать
Просмотров: 161
Tuning: Down a whole step +drop C, but I belive Mustasch tune all strings
down two steps.


Main riff:
d---------------------------------|
a---------------------------------|
f---------------------------------|
c---------5-----5---5-----5---5-7-|
g---------3-----3---3-----3---3/5-|
c-0-0-0-0---0-0---0---0-0---0-----|


Verse riff:
d-----/5----3-------|
a-3-----------------|
f-------------------| (Played by two guitars)
c-------------------|
g-5---/12---10------|
c-------------------|


Heavy ass sabbath-riff:
d-----------------------------------------------------|
a-----------------------------------------------------|
f-----------------------------------------------------|
c-------------------------------------------------6~~-|
g-0-0-0-0-1h3-3---1h3-------0-0-0-0-1h3-3---1h3-------|
c-0-0-0-0-------------0-3~~-0-0-0-0-------------0-----|


Unison solo:
d-------------------------------|
a-------------------------------|
f----5-7------------5--7--7b8---|
c-7-------5----5-7--------------|
g------------8------------------|
c-------------------------------|
Добавлено: 23.04.2012
Другие материалы по этой песне:
  • Аккорды и текст

Страница создана 23.04.2012
http://primanota.ru/mustasch/muddy-waters-chords.htm
Привет, Гость.
Предлагаем пройти революционный курс по гитаре.
Подарок от PrimaNota.Ru, забирай!