PrimaNota.ru - самый крупный в мире бесплатный архив песенных текстов, аккордов, табулатур и нот


Mustard Plug - The Freshman - текст песни, таба, бас-таба, видео

Регистрация Запомнить меня
Войти через:  Facebook Google Twitter Vk Yandex Mail.ru

Mustard Plug - The Freshman - текст песни, таба, бас-таба, видео

Печатать
Просмотров: 125
THE FRESHMAN - Mustard Plug

By: Matt "Carl" Young

Intro pt.1
e|-------------------|-------6------|-----------------|-------------------|
B|-------------------|---------6----|--------10-------|----------6--------|
G|-10--10--10--------|--------------|-----------10----|------------6------|
D|-10--10--10--10----|-8-8--------8-|--12-12-------12-|-10--8-8-----------|
A|--8---8----------8-|-8-8----------|--12-12----------|-10--8-8------8----|
E|-------------------|-6-6----------|--10-10----------|--8--6-6-----------|

Intro pt.2
e|--------------------------------------------------------------------------|
B|--------------------------------------------------------------------------|
G|-10----------------------------------------------------------(4x)---------|
D|-10-(8-TIMES)-8-------------12-----------10---8---------------------------|
A|--8-----------8-(8-TIMES)---12-(6-TIMES)--6---8-(8 TIMES)-----------------|
E|--------------6-------------10------------6---6---------------------------|

VERSE/ PRE-CHORUS (CAN'T BE HELD RESPONSIBLE...)
e|-X-5-X-5-X-5-X-5-X-6-X-6-X-6-X-6------------------------------------------|
B|-X-6-X-6-X-6-X-6-X-6-X-6-X-6-X-6------------------------------------------|
G|-X-5-X-5-X-5-X-5-X-5-X-5-X-5-X-5------------------------------------------|
D|--------------------------------------------------------------------------|
A|--------------------------------------------------------------------------|
E|--------------------------------------------------------------------------|

CHORUS (FOR THE LIFE OF ME...)
e|--------------------------------------------------------------------------|
B|--------------------------------------------------------------------------|
G|-10----------------------------------------------------------(4x)---------|
D|-10-(8-TIMES)-8-------------12-----------10---8---------------------------|
A|--8-----------8-(8-TIMES)---12-(5-TIMES)-10---8-(8 TIMES)-----------------|
E|--------------6-------------10------------8---6---------------------------|

OUTRO #1 (OH YEAH, YEAH, YEAH...)
e|--------------------------------------------------------------------------|
B|--------------------------------------------------------------------------|
G|---------3-3-3-3-5-5-5-3--------------------------------------------------|
D|-3-3-3-3-3-3-3-3-5-5-5-3-(LET-LAST-NOTE-RING)----(3x)---------------------|
A|-3-3-3-3-1-1-1-1-3-3-3-1--------------------------------------------------|
E|-1-1-1-1------------------------------------------------------------------|

LITTLE DIDDLY
e|--------------------------------------------------------------------------|
B|-----------------15/3p0---------------------------------------------------|
G|--------------------------------------------------------------------------|
D|--------------------------------------------------------------------------|
A|-8-6-8-6-8-6--------------------------------------------------------------|
E|--------------------------------------------------------------------------|

OUTRO #2 (SLOW- FOR THE LIFE OF ME...)
e|--------------------------------------------------------------------------|
B|--------------------------------------------------------------------------|
G|--10----------------------------------------------------------------------|
D|--10-(RING)--8---------12---------10-8----------(2x)----------------------|
A|---8---------8-(RING)--12-(RING)--10-8-(RING)-----------------------------|
E|-------------6---------10----------8-6------------------------------------|

INTRO pt.1       (1x)
INTRO pt.2       (3x)
VERSE/PRE-CHORUS (9x)
CHORUS           (4x)
VERSE/PRE-CHORUS (9x)
OUTRO #1         (3X)
VERSE/PRE-CHORUS (9x)
CHORUS           (8x)
LITTLE DIDDLY    (1x)
OUTRO #2         (2x)
CHORUS           (8x)

(PRE-CHORUS)

(CHORUS) (2x)

(LITTLE DIDDLY)

(CHORUS) (2X)
Добавлено: 28.10.2013
Другие материалы по этой песне:
  • Аккорды и текст

Страница создана 14.04.2012
http://primanota.ru/mustard-plug/the-freshman-chords.htm
Привет, Гость.
Предлагаем пройти революционный курс по гитаре.
Подарок от PrimaNota.Ru, забирай!