PrimaNota.ru - самый крупный в мире бесплатный архив песенных текстов, аккордов, табулатур и нот


Mustard Plug - Send You Back - текст песни, таба, видео

Регистрация Запомнить меня
Войти через:  Facebook Google Twitter Vk Yandex Mail.ru

Mustard Plug - Send You Back - текст песни, таба, видео

Печатать
Просмотров: 99
pretty easy song

Intro

e|-----------------------------------------------------|
B|-----------------------------------------------------|
G|---------------------------------------------11------|
D|--------14-12-11-12-11-12-12--------14-12-11----14---|
A|--12-12-----------------------12-12------------------|
E|-----------------------------------------------------|

e|----------------------------------------------------|
B|----------------------------------------------------|
G|----------------------------------------------------|
D|--------14-12-11-12-11-12-12--14b15(15)(15)(15)14---|
A|--12-12---------------------------------------------|
E|----------------------------------------------------|

Verse (clean)

e|--5-5-x-5-5-x--5-5-x-5-5-x--7-7-x-7-7-x--5-5-x-5-5-x---|
B|--5-5-x-5-5-x--7-7-x-7-7-x--7-7-x-7-7-x--7-7-x-7-7-x---|
G|--6-6-x-6-6-x--7-7-x-7-7-x--8-8-x-8-8-x--7-7-x-7-7-x---|
D|--7-7-x-7-7-x--7-7-x-7-7-x--9-9-x-9-9-x--7-7-x-7-7-x---|  x4
A|-------------------------------------------------------|
E|-------------------------------------------------------|

Chorus (distorted)

e|------------------------------------------------|
B|------------------------------------------------|
G|-------------------------------------99999999---|
D|--9999--7777--9999--7777--9999--7777-99999999---|
A|--9999--7777--9999--7777--9999--7777-77777777---|
E|--7777--5555--7777--5555--7777--5555------------|



e|----------------------------------------------------|
B|----------------------------------------------------|
G|------------------------------------------------7---|
D|-----------12~--14h16-12h14-11h12-9h11-7-9-7-77-----|
A|----------------------------------------------------|
E|--12-12h14------------------------------------------|

e--------------------------------------------|
B--------------------------------------------|
G--------------------------------------------|
D-----7-9-11--12-11-9-11---12-11-9----9------|
A---9------------------------------12---12---|
E--------------------------------------------|

e-------------------------------------------------|
B-------------------------------------------------|
G-----------------------9---------------9~--------|
D----9-11-9-----9-11-12---12-11-9-11-12-----------|
A-----------12------------------------------------|
E-----------------------------------------12/-----|
Добавлено: 03.06.2013
Другие материалы по этой песне:
  • Аккорды и текст

Страница создана 18.06.2012
http://primanota.ru/mustard-plug/send-you-back-chords.htm
Привет, Гость.
Предлагаем пройти революционный курс по гитаре.
Подарок от PrimaNota.Ru, забирай!