PrimaNota.ru - самый крупный в мире бесплатный архив песенных текстов, аккордов, табулатур и нот


Mustard Plug - Box - аккорды и текст, таба, видео

Регистрация Запомнить меня
Войти через:  Facebook Google Twitter Vk Yandex Mail.ru

Mustard Plug - Box - аккорды и текст, таба, видео

Печатать
Просмотров: 121
Box
Mustard Plug
Mustard Plug-Box

Intro:
P.M.--------------------------------------------------------|
------------------------------------------------------------|
------------------------------------------------------------|
------------------------------------------------------------|
-------------------------3333-3333---5555-5555--------------|
-3333-3333--5555-5555----1111-1111---3333-3333--------------|
-1111-1111--3333-3333---------------------------------------|
Normal
---------------------------------------|
---------------------------------------|
---------------------------------------|
--------------------3------5-----------|
---3--------5-------1------1-----------|
---1--------3--------------------------|

---------------------------------------------|
---------------------------------------------|
---------------------------------------------|
-------------------33-3-33-3---55-5-5-55-5-5-|
-3333-3--5555-5----11-1-11-1---33-3-3-33-3-3-|
-1111-1--3333-3------------------------------|

verse:
--11--1--1------33--3--3----66--6--6----88--8--8------|
--11--1--1------33--3--3----66--6--6----88--8--8------|6x
--22--2--2------44--4--4----77--7--7----99--9--9------|
------------------------------------------------------|
------------------------------------------------------|
------------------------------------------------------|

Chours:(same as intro)
F-G-Bb-C 4x

Verse
Chours
Verse(bridge with the same verse)
Chours
Outro
Добавлено: 21.06.2012
Другие материалы по этой песне:
  • Аккорды и текст

Страница создана 06.03.2012
http://primanota.ru/mustard-plug/box-chords.htm
Привет, Гость.
Предлагаем пройти революционный курс по гитаре.
Подарок от PrimaNota.Ru, забирай!