PrimaNota.ru - самый крупный в мире бесплатный архив песенных текстов, аккордов, табулатур и нот


Musikatha - Sapat Na At Higit Pa - таба, видео

Регистрация Запомнить меня
Войти через:  Facebook Google Twitter Vk Yandex Mail.ru

Musikatha - Sapat Na At Higit Pa - таба, видео

Печатать
Просмотров: 83
Musikatha - Sapat Na At Higit Pa

Key : F#

Intro : 

F# B

Intro tab
Note : Listen to the intro carefully so you can catch up. 

E|-----------------4-6-4-4-----------------4-6-4-4-----------------4-6-4-4-|
B|-------------7-6-4-6-4-4-------------7-6-4-6-4-4-------------7-6-4-6-4-4-|
G|-6-------6---6-6-4-6-4-4-6-------6---6-6-4-6-4-4-6-------6---6-6-4-6-4-4-|
D|---6/8-8---8---------------6\8-8---8-----4-6-4-4---6\8-8---8-------------|
A|-------------------------------------------------------------------------|
E|-------------------------------------------------------------------------|


E|-----------------------------------------------|
B|-------------------7--6------------------------|
G|--6----------6-----6--6------------------------|
D|-----6\8--8-----8--------6--4--6\8/6--4--------|
A|-----------------------------------------6--4--|
E|-----------------------------------------------|

Verse 1 :
F#
di mangangamba sa kawalan
D#
pagpapala mo'y laging laan
B               G#m
di matatakot sa panganib
B                    C#
'pagkat naririyan ka palagi


Verse 2 :
F#
'di matitinag sa pagsubok
D#
ang pagsama mo'y tiyak at lubos
B                G#m
'di mapipigil sa pag-awit
B
'pagkat ikaw ay mabuti
E
'pagkat ikaw ay mabuti

Chorus :
F#
ikaw ang aking pastol hindi magkukulang
B             C#
sapat na at higit pa

F#
biyaya mo'y sagana at umaapaw
B              C#
sapat na at higit pa

D#                       G#m
sapat na sa lahat kong pangangailangan
D#                       G#m
higit pa sa lahat kong inaasahan

B                       F# 
wala na ngang mahihiling pa
G#m
'pagkat ika'y sapat na
C#
ika'y sapat na at higit pa
Добавлено: 15.11.2015
Другие материалы по этой песне:
  • Аккорды и текст

Страница создана 15.11.2015
http://primanota.ru/musikatha/sapat-na-at-higit-pa-chords.htm
Привет, Гость.
Предлагаем пройти революционный курс по гитаре.
Подарок от PrimaNota.Ru, забирай!