PrimaNota.ru - самый крупный в мире бесплатный архив песенных текстов, аккордов, табулатур и нот


Music Machine - Trouble - таба, видео

Регистрация Запомнить меня
Войти через:  Facebook Google Twitter Vk Yandex Mail.ru

Music Machine - Trouble - таба, видео

Печатать
Просмотров: 107
From the album "Turn on" by The Music Machine
Tabbed by Anders Pedersen (mc_nyregrus@hotmail.com)
Tune guitar down to D#


4. = punctured note
/5 = Slide up to note


Riff A:
|----------------------------------|
|----------------------------------|
|----------------------------------|
|----------------------------------|
|2-1-2-1---------2-1-2-1-----------|
|--------3-2-3-2---------3-2-3-2---|



Riff B:
|----------------------------------|
|----------------------------------|
|-----------4----------------------|
|-----4-3-2---2----4-3-2-----------|
|2-----------------------0-2.--2.--|
|----------------------------------|

Play x 2 in total


Verse:

Riff B1:
|----------------------------------||----------------------------------|
|----------------------------------||----------------------------------|
|-----------4----------------------||-----------4----------------------|
|-----4-3-2---2----4-3-2-----------||-----4-3-2---2----4-3-2-0-4.--4.--|
|2-----------------------0-2.--2.--||2---------------------------------|
|----------------------------------||----------------------------------|

Play x 2 in total


Riff C:
|--------------------------------------------------------
|--------------------------------------------------------
|-------------------------------------------------------- Continues underneath...
|--------------------------------------------------------
|--------------------------------------------------------
|0----0-/5---5-0----0-/3---3-0----0-/5---5-0----0-/3---3-

 -----------------------------------------------------------|
 -----------------------------------------------------------|
 4.--4-3-2.--2-3-4.--4-3-2.--2-3-4.--4-3-2.--2-3-4.--4-3-2.-|
 -----------------------------------------------------------|
 -----------------------------------------------------------|
 -----------------------------------------------------------|

Then organ and bass for a few seconds.



Then riff B1 x 2
Then riff C x 1

Riff D:
|----------------------------------------------------------------------------------------------|
|----------------------------------------------------------------------------------------------|
|------------------------------------------------3-------3-2-----------------------------------|
|----------------------------------------------------3----------7------------------------------|
|8--------8-7----5----3----2----0--------0-1*---------------------7----5----3----2----0--------|
|----------------------------------------------------------------------------------------------|

Play x 1½ in total, ending on the * the second time


Then organ and bass like this:
|--------------------------------|
|--------------------------------|
|--------------------------------|
|--------------------------------|
|--------------------------------|
|4/6---4/6---4/6-4/6---4/6---4/6-|



Riff A x 2
Riff B x 2
Riff C x 1

Then ending:
|------------------------------------------------|
|------------------------------------------------|
|------------------------------------------------|
|------------------------------------------------|
|------------------------------------------------|
|4/6---4/6---4/6-4/6---4/6---4/6--7------2-------|
Добавлено: 27.07.2015
Вам также может быть интересно:
Другие материалы по этой песне:
  • Аккорды и текст

Страница создана 27.07.2015
http://primanota.ru/music-machine/trouble-chords.htm
Привет, Гость.
Предлагаем пройти революционный курс по гитаре.
Подарок от PrimaNota.Ru, забирай!