PrimaNota.ru - самый крупный в мире бесплатный архив песенных текстов, аккордов, табулатур и нот


Mushroomhead - Fallen - текст песни, таба, видео

Регистрация Запомнить меня
Войти через:  Facebook Google Twitter Vk Yandex Mail.ru

Mushroomhead - Fallen - текст песни, таба, видео

Печатать
Просмотров: 145
The Fallen from Mushroomhead
Tuning: ADGCFAD
You make be skeptical of the main riff being on one string at a time, but it sounds best
way. I played along to the song and this sounded dead on. Gimme your feedback if ya
a better way to play something. Figure out how many times each riff's played cause I 
wanan count, I'll give the order though. Timing's a bit weird on some endings, listen
cause it sounded right.

Main
--------------------|
--------------------|
--------------------| Play x3
--------------------|
--------------------|
--------------------|
-1-1-1-1-1-1-1-010--|
   . . . . . . . .
-----------------------------------------|
-----------------------------------------|
-----------------------------------------|
-----------------------------------------|
-----------------------------------------|
-----------------------------6-----6-----|
---------------//-86-86--6h8---6h8---8---|
-1-1-1-1-1-1-1-------------------------6-|
   . . . . . .
Chorus 1
-------------------------------------------------|
-------------------------------------------------|
-------------------------------------------------|
-------------------------------------------------|
-3-----------------3-5-6--6----------------------|
-3-----------------3-5-6--6-----------8-88-8p6---|
-1-111111111111111-1-3-4--4-444444444-6-66-----6-|
   ...............          .........
Chorus 2
----------------------------------------------------|
----------------------------------------------------|
----------------------------------------------------|
----------------------------------------------------|
-3-3----3-3--------6--------6-6----8-8--------------|
-3-3-xx-3-3-xx-6h8---8p6----6-6-xx-8-8-xx-8p6---8-6-|
-1-1-xx-1-1-xx-----------6--4-4-xx-6-6-xx-----6-----|

-Play Main
-Play Chorus 1 and Chorus 2

Interlude 1(let the ring go for an 8 count, and do that 4 times)
--------------------|
--------------------|
--------------------|
--------------------|
-3~~----------------|
-3~~----------------|
-1~~----------------|

Outro
---------------------------------------------------|
---------------------------------------------------|
---------------------------------------------------|
-9-9//----9-9//------------9-9//----9-9//----------|
-9-9//-xx-9-9//-xx---------9-9//-xx-9-9//-xx-------|
-7-7//-xx-7-7//-xx---------7-7//-xx-7-7//-xx-------|
-------------------111111--------------------11-11-|
                   ......                    .. ..
Добавлено: 06.06.2012
Другие материалы по этой песне:
  • Аккорды и текст

Страница создана 08.03.2012
http://primanota.ru/mushroomhead/fallen-chords.htm
Привет, Гость.
Предлагаем пройти революционный курс по гитаре.
Подарок от PrimaNota.Ru, забирай!