PrimaNota.ru - самый крупный в мире бесплатный архив песенных текстов, аккордов, табулатур и нот


Muse - Time Is Running Out Live - бас-таба, видео

Регистрация Запомнить меня
Войти через:  Facebook Google Twitter Vk Yandex Mail.ru

Muse - Time Is Running Out Live - бас-таба, видео

Печатать
Просмотров: 272
***************************************
MUSE - TIME IS RUNNING OUT (LIVE)
***************************************

-tabbed by "zero83"
-Standard Tuning
- / means slide
-You'll find videos to my tabs on www.youtube.com/user/blacksystem83
-PLEASE RATE AND COMMENT! =)

0:00 
 |-----------------------------------------------------------------|5x
 |-----------------------------------------------------------------|
 |---------------------------5-5-6-----7-----7-7-------3-----5-5---|
 |-5-5-8-5---8-8-5-7---5-7---------0-----0-------0-1-----1/3-----3-| 

 hit each of those notes several times:
 |-----------------------------------|
 |-----------------------------------|
 |-8--10--12--10--8--10--12------10\-|
 |---------------------------8-------|
  
                                      
0:57
 hit each of those notes several times
 |----------------------|   |           |-------------------|
 |----------------------|   |           |-------------------|
 |----------3-----------| <-            |------3-------5----|
 |-1--3--5-----1--3--5--|               |--1-1---1/3-3---3--|

 
1:13
 |-----------------------------------------------|4x
 |-----------------------------------------------|
 |-------------------------7---------3-------5---|
 |-5-5-8-5---7-7-5-7---0-0---0---1-1---1/3-3---3-| 

 hit each of those notes several times:
 |-----------------------------------|
 |-----------------------------------|
 |-8--10--12--10--8--10--12------10\-|
 |---------------------------8-------|
     
                                    
2:02
hit each of those notes several times:
 |-------------------------|
 |-------------------------|
 |----------3-----------3--|
 |-1--3--5-----1--3--5-----|
   
 
Those x means you can improvise here. Watch the live-videos to get a idea, 
I just use to shred on the 12th fret.^^                                 ^
 |----------------------------------------------------------------------|--------|
 |-------567777----------567777----------567777-------------------------|--------|
 |-557788------2233557788------2233557788--------0-2-5-7-----7----7--------------|
 |---------------------------------------------------------0-----0----12xxx------|


2:35
 |-----------------------------------------------------------------|x3
 |-----------------------------------------------------------------|
 |---------------------------5-5-6-----7-----7-7-------3-----5-5---|
 |-5-5-8-5---8-8-5-7---5-7---------0-----0-------0-1-----1/3-----3-| 

 hit each of those notes several times:
 |-----------------------------------|
 |-----------------------------------|
 |-8--10--12--10--8--10--12------10\-|
 |---------------------------8-------|


3:20
 hit each of those notes several times:
 |-------------------------|
 |-------------------------|
 |----------3-----------3--|
 |-1--3--5-----1--3--5-----|

 |-------------------------------------------------------------------------------|
 |-------567777----------567777----------567777----------------------------------|
 |-557788------2233557788------2233557788--------0-2-5-7-----7----7--------------|
 |---------------------------------------------------------0-----0----12xxx------|

 |---------------------------------------------|
 |---------------------------------------------|
 |---------------------------------------------|
 |-5-5-8-5---5-5-8-5---5-5-8-5--\\//--5-5-8-5--| 
Добавлено: 04.05.2012
Другие материалы по этой песне:

Страница создана 04.05.2012
http://primanota.ru/muse/time-is-running-out-live-chords.htm
Привет, Гость.
Предлагаем пройти революционный курс по гитаре.
Подарок от PrimaNota.Ru, забирай!