PrimaNota.ru - самый крупный в мире бесплатный архив песенных текстов, аккордов, табулатур и нот


Muse - Time Is Runnig Out - текст песни, бас-таба, видео

Регистрация Запомнить меня
Войти через:  Facebook Google Twitter Vk Yandex Mail.ru

Muse - Time Is Runnig Out - текст песни, бас-таба, видео

Печатать
Просмотров: 262
I know this isn't how Chris plays it, I Think it sounds good anyhow...This is similar to 
the others apart from the intro/verse..Not to sure about the outro, but hope this helps!

Intro X5
G------------------------------------------|
D------------------------------------------|
A----------------56---7----7----3---55---5-|
E-5-8-5588-7-5775---0---00--0-h1-1/3---3---|

Bridge 1
G-----------------------------------------------------------|
D-----------------------------------------------------------|
A--88888888101010101010101012121212121212121010101010101010-|
E-----------------------------------------------------------|

G-------------------------------------------------------|
D------------------------------------------1010101010---|
A--8888888810101010101010101212121212121212----------10/|
E-------------------------------------------------------|
                                    And that slide goes to the chorus..

Chorus 1
G---------------------------------|
D---------------------------------|
A------------------------33333333-|
E--111111113333333355555555-------|

G---------------------------------|
D---------------------------------|
A--------------------------3---5--|
E--1111111133333333555555555511--1|

Verse 2
G-------------------------------|X3
D-------------------------------|
A---------------7------3----5---|
E--5585--7757-00-0---11-1/33--5-|

G------------------------------------------|
D------------------------------------------|
A----------------56---7----7----3---55---5-|
E-5-8-5588-7-5775---0---00--0-h1-1/3---3---|

Bridge 2
G-----------------------------------------------------------|
D-----------------------------------------------------------|
A--88888888101010101010101012121212121212121010101010101010-|
E-----------------------------------------------------------|

G---------------------------------------------------------|This time its twice
D------------------------------------------1010101010-----|as fast so play
A--8888888810101010101010101212121212121212----------10---||twice as many
E---------------------------------------------------------|notes.

Chorus 2
G---------------------------------|
D---------------------------------|
A------------------------33333333-|
E--111111113333333355555555-------|

G----------------------------------------0022------------0022--|
D----------------------------------002233----------002233------|
A--------------------------33333323----------002233------------|
E--111111113333333355555555------------------------------------|

G--------------0022---------------------------|
D--------002233-------------------------------|
A--002233----------002233--7-----7---7-----7--|
E------------------------0----00---0----00----|

No vocals
G------------------------------------------|
D------------------------------------------|
A----------------56---7----7----3---55---5-|
E-5-8-5588-7-5775---0---00--0-h1-1/3---3---|X3

Bridge 3

G:------------------------------------------------------------|
D:------------------------------------------------------------|
A:--88888888101010101010101012121212121212121010101010101010--|
E:------------------------------------------------------------|

G:-----------------------------------------------------------|
D:------------------------------------------1010101010-------|
A:--8888888810101010101010101212121212121212------------10\--|
E:-----------------------------------------------------------|

Chorus 3
G---------------------------------|
D---------------------------------|
A------------------------33333333-|
E--111111113333333355555555-------|

G----------------------------------------0022------------0022--|
D----------------------------------002233----------002233------|
A--------------------------33333323----------002233------------|
E--111111113333333355555555------------------------------------|

G--------------0022---------------------------|
D--------002233-------------------------------|
A--002233----------002233--7-----7---7-----7--|
E------------------------0----00---0----00----|

Outro
G-----------------------|
D-----------------------|
A----3-----3----3---3---|
E--55-5--55-5-55-555--5-|
Добавлено: 19.05.2012
Другие материалы по этой песне:

Страница создана 02.04.2012
http://primanota.ru/muse/time-is-runnig-out-chords.htm
Привет, Гость.
Предлагаем пройти революционный курс по гитаре.
Подарок от PrimaNota.Ru, забирай!