PrimaNota.ru - самый крупный в мире бесплатный архив песенных текстов, аккордов, табулатур и нот


Muse - Screenager - аккорды и текст, таба, бас-таба, видео

Регистрация Запомнить меня
Войти через:  Facebook Google Twitter Vk Yandex Mail.ru

Muse - Screenager - аккорды и текст, таба, бас-таба, видео

Печатать
Просмотров: 480
Авторы музыки: Matthew Bellamy
Авторы текста: Matthew Bellamy
Screenager
Muse
iNTRO
GTR WITH REVERSE DELAY
E|--------------------2-------------------------2-------------------|
B|--------------------3-------------------------3-------------------|
G|--3--3-------RPTX4--3--3------------3---------3--3----------------|
D|-0--0---0--0--------0-0---0-0-0--0-0---0-0-0--0-0--0-0-0--0-----0-|
A|-------4--4--------------4-4-4--------4-4-4-------4-4-4-------1---|
E|--------------------------------3------------------------3--3-----|
 
E|---------------------0-9H10-----------------------6-6---6--------------------|
B|----------------------------10H11-------------------5BU-5BU--3H4P3-----4-----|
G|-------------5H8-7-7--------------11H12--------0-------------------5-3-5BU-3-|
D|---------5H7----------------------------11H12--------------------------------|
A|-----3H6---------------------------------------------------------------------|
E|-2-5-------------------------------------------------------------------------|

E|--------------------------|
B|--------------------------|
G|--------------------0-----|
D|--4P3---------------------|
A|------5-4-3-1-0-----------|
E|----------------3S1---0H2-|

VERSE
E|-----------------------------------------------------------------0-----------|
B|----------------------X2----2-3---2-3-----------------------------2----------|
G|--3-3-------3-3----------------3-----3---3--3--------3-3-------3---3---2-----|
D|---0--0-0-0--0--0-0-0-----3-----0-----0----0--0-0-0-0-0--0-0--2-2---2-0--0-0-|
A|-----4-4-4-----4-4-4-----0-------------------4-4-4------4-4--0----------4-4--|
E|-3---------3----------------------------3------------------------------------|
your screaming

E|---------------------------------------|
B|--------------------------8-------8----|
G|----3---------3---------8--8-8--8--8-8-|
D|--0---0-0-0-0---0-0-0--8-8--8--8-8--8--|
A|-------4-4-------4-4--6-------6--------|
E|-3-3-3-----3-3-3-----------------------|

E|--------------------------------------------------|
B|-----7---7---7--------7--------7-------8--------7-|
G|---5--5---5---5-----5--5-----5--5----7--7------5--|
D|--7-7--7---7---7---7-7--7---7-7--7--5-5--5----4---|
A|-6------6---6---6-5------5-3------3----------5----|
E|-----------------------------------7------7-5-----|
All the scars on your skin

Chorus
E|-10-------11--------12--------10-------11-------11-------12--------12--------|
B|---0--0-----0--0------0--0------0--0-----0--0-----0--0-----0--0------0--0----|
G|----12--x4---12--x4----12--x8----12--x4---12-x2----11-x2----11--x2----12--x6-|
D|-----------------------------------------------------------------------------|
A|-----------------------------------------------------------------------------|
E|-----------------------------------------------------------------------------|

E|-10-------11-------12--------10--------11--------12--------0-0-------------|
B|---0--0-----0--0-----0--0------0--0------0--0------0--0---4-4--0-0---------|
G|----12--x4---11--x4---12--x8----12--x4----11--x4----12-x4-----3-3--5-5-----|
D|------------------------------------------------------------------0-0--0-0-|
A|----------------------------------------------------------------------4-4--|
E|---------------------------------------------------------------------------|

1st time
E|-2---------------------------------0-9h10---------------------6-6-------|
B|-3--3-3----------------------------------10h11-------------3------6p5h6-|
G|-3-3-3---------3-3-----------5h8-7------------11h12------0---0----------|
D|-0------0-0-0-0-0-0-------5h7----------------------11h12----------------|
A|-------4-4-4-----------3h6----------------------------------------------|
E|-------------3------2-5-------------------------------------------------|

outro
E|-2------------------------5---------0-------2--------------------------|
B|-3--3-3-------------------4---3--3---2-----1--3---------3-3-3----------|
G|-3-3-3----------3-3-------3--3--3-----0---2---3--3-3-3-3-3-3----ad-lib-|
D|-0-------0-0-0-0-0--0-0-0-0-0--0---2---2-0----0-0-0-0------------------|
A|--------4-4-4------4-4-4----------0------------------------------------|
E|--------------3--------------------------------------------------------|

Cheers
Добавлено: 12.05.2014
Другие материалы по этой песне:

Страница создана 23.02.2012
http://primanota.ru/muse/screenager-chords.htm
Привет, Гость.
Предлагаем пройти революционный курс по гитаре.
Подарок от PrimaNota.Ru, забирай!